Rush - Driven Chords & Tabs

 

Driven Chords & Tabs

Rush Chords & Tabs

Version: 2 Type: Tab 0 ratings
1 star 2 stars 3 stars 4 stars 5 stars
comments

Driven Tab

   
Band: RUSH
Title: Driven
Tabbed by: Shawn Pollard

~Drop D tuning~

Intro
   E-------------------------------------------------------------|
   B-------------------------------------------------------------|
   G-------------------------------------------------------------|
   D-------------------------------------------------------------|
   A-3p0-0-5p0-3p0-0-5p0-3p0-3p0-3p0-0-5p0-0-6p0-6p0-6p0-5p0-3p0-|
   D-------------------------------------------------------------|

   E-----------------------------------------------------|
   B-----------------------------------------------------|
   G-----------------------------------------------------|
   D-----------------------------------------------------|
   A-3p0-0-5p0-3p0-0-5p0-3p0-3p0-3p0-0-5p0-0-6p0-6p0-6p0-|
   D-----------------------------------------------------|
         repeat some numer of times

Verse
    F    G    Am    Am    F      G  repeat
   E-1  E-3   E-0-|
   B-1  B-0   B-1-|
   G-2  G-0   G-2-|
   D-3  D-0   D-2-|
   A-0  A-2   A-0-|
   D-0  D-3   D-0-|
strumming pattern- Down Up Down Up
[ Tab from: http://www.guitartabs.cc/tabs/r/rush/driven_tab_ver_2.html ]
End verse on D
            E-2
            B-3
            G-2
            D-0
            A-x
            D-x
Chorus
   E-------------------------------------------------------------------|
   B-------------------------------------------------------------------|
   G-------------------------------------------------------------------|
   D-0-----------------------------------------------------------------|
   A-0-2-3-3-3-3-5-3-5-7-7-7-7-7-5-7-3-3-3-3-5-3-2-0---2---------------|
   D-0-2-3-3-3-3-5-3-5-7-7-7-7-7-5-7-3-3-3-3-5-3-2-0---2-3-3-3-3-5-7-7-|

   E--------------------------------------------------------------------|
   B--------------------------------------------------------------------|
   G--------------------------------------------------------------------|
   D--------------------------------------------------------------------|
   A-----------3-3-3-3-5-3-2-0-2-3-5-7-7-7------------------------------|
   D-7-7-7-5-7-3-3-3-3-5-3-2-0-2-3-5-7-7-7------------------------------|

                         C
   E---------------------0------|     Repeat
   B---------------------1------|
   G---------------------0------|
   D---------------------2------|
   A-5v-------5-----5----3------|
   D----5v-7v---3-2---5v-x------|
                     Eb
   E------------------x-----------------|
   B------------------8-----------------|
   G------------------8-----------------|
   D------------------8-----------------|
   A-8------6-----8---6-5-6-5-3-5-7-7-7-|
   D---8-10---6-5---8-x-------3-5-7-7-7-|
Comments