Rush - Closer To The Heart Chords & Tabs

 

Closer To The Heart Chords & Tabs

Rush Chords & Tabs

Version: 4 Type: Tab

Closer To The Heart Tab

Key:
b - bend
r - release bend
p - pull off
PR== - pre-bent

e|-----------------------------------------------------12-14-----12-14-|
B|--15b--------15--------13---------------12-14-14--15--------15-------|
G|-----------------------------11--12--14------------------------------|
D|---------------------------------------------------------------------|
A|---------------------------------------------------------------------|
E|---------------------------------------------------------------------|
[ Tab from: http://www.guitartabs.cc/tabs/r/rush/closer_to_the_heart_tab_ver_4.html ]
                                 PR========
 |--12-14-15-12-14-15---14-15--17b-17-17-17r-----12--14--15-15b-|
 |--------------------------------------------------------------|
 |--------------------------------------------------------------|
 |--------------------------------------------------------------|
 |--------------------------------------------------------------|
 |--------------------------------------------------------------|

                                                   PR========
 |-----------------------15-14-15-14-15-14-15-14-15b-15-15-15-|
 |--15br-15----17br-17----------------------------------------|
 |------------------------------------------------------------|
 |------------------------------------------------------------|
 |------------------------------------------------------------|
 |------------------------------------------------------------|

 |-------------------------------------------------------|
 |-----15------------------------------------------------|
 |-14b----14r-----12-11----------------------------------|
 |------------------------14p12-14b-12-------------------|
 |---------------------------------------15-14-15-14-14b-|

 |-------------------------|
 |-------------------------|
 |-------------------------|
 |---------------------14--|
 |-12-11--12-12-12-11------|
 |-------------------------|
 |