Rush - Closer To The Heart Chords & Tabs

 

Closer To The Heart Chords & Tabs

Rush Chords & Tabs

Version: 3 Type: Tab

Closer To The Heart Tab

   
-------------------------------------------------------------------------------
			     SONG NAME - Band Name
-------------------------------------------------------------------------------
If anyone knows the solo, email me.
Tabbed by:krbe2006
Email: krbee2006@netzero.com

Tuning:E A D G B E

Intro (Clean)
e|-5-----7-----4-----5-----5------|
B|---0-----0-----0-----0-----7-5--|
G|-----7-----7-----7-----7--------|
D|--------------------------------|
A|--------------------------------|
E|--------------------------------|

Intro 2 (Clean
e|--------0-----------0-----------0----2-3-2--------0--2-3-2--|
B|------3---3-------3---3-------1---1--3-3-3--2-2h3----3-3-3--|
G|----4-------4----2------2---2--------2-2-2--2--------2-2-3--|
D|--5------------4----------3-----------------2---------------|
A|------------------------------------------------------------|
E|-----------------------------------------------------------|

Verse 1 (Clean)
e|-5---3---2---3---5--|
B|-5---3---3---3---5--|
G|-6---4---2---4---6--|Strum each of the chords a few times to 
D|-7---5-------5---7--| match the words.
A|--------------------|
E|--------------------|

Verse 1/Chorus        
        ...Closer to the Heart...
e|-5---3---2-------------3-----3-----|
B|-5---3---3------2------3----3-3----|
G|-6---4---2------2------0---0---0---|
D|-7---5----------2------0--0-----0--|
A|-----------------------2-----------|
E|-----------------------3-----------|

Chorus 1 (Clean)
 ...Closer to the Heart.........
e|--2------0------3--|
B|--3------2------3--|
G|--2------2------0--|
D|---------2------0--|
A|---------0------2--|
E|----------------3--|
[ Tab from: http://www.guitartabs.cc/tabs/r/rush/closer_to_the_heart_tab_ver_3.html ]
Verse 2 (Distortion)
e|----------------------|
B|----------------------|
G|-------7--------------|
D|-7--5--7--5--7---7--5-|
A|-7--5--5--5--7---7--5-|
E|-5--3-----3--5---5--3-|

Chorus 2 (Distortion)
 ...Closer to the Heart, yea..Closer to the Heart..
e|-------------------------------------------------|
B|-------------------------------------------------|
G|--7-------------------------7--------------------|
D|--7------7------5-----------7------7------5------|
A|--5------7------5-----------5------7------5------|
E|---------5------3------------------5------3------|

Riff 1
Hit the first 2 notes hard and then mute them right away, but
let the third one ring a little.
e|-----------|
B|-----------|
G|--7--------|
D|--7--7--5--|
A|--5--7--5--|
E|-----5--3--|

Solo
Then there's the solo, but I don't know it, I just know the chords
e|--2--3-----3--|
B|--3--3--1--3--|
G|--2--0--2--0--|
D|-----0--2--0--|
A|-----2-----2--|
E|-----3-----3--|

End Verse/Chorus
e|---------------------------------------------------------------|
B|---------------------------------------------------------------|
G|--------7------------------7--------7--------7--------7--------|
D|--7--5--7--5--7-7-7--7--5--7--7--5--7--7--5--7--7--5--7--7--5--|
A|--7--5--5--5--7-7-7--7--5--5--7--5--5--7--5--5--7--5--5--7--5--|
E|--5--3-----3--5-5-5--5--3-----5--3-----5--3-----5--3-----5--3--|

Order of Play
Intro (Clean)x4
Intro 2 (Clean)
Verse 1 (Clean)
Verse 1/Chorus (Clean)
Chorus 1 (Clean)
Verse 2 (Distortion)
Chorus 2 (Distortion)
Riff 1 (Distortion)
Solo (Clean)x3
Intro (Clean)x4
End Verse/Chorus (Distortion)

| /  slide up
| \  slide down
| h  hammer-on
| p  pull-off
| ~  vibrato
| +  harmonic
| x  Mute note
===============================================================================