Rush - Beneath Between And Behind Chords & Tabs

 

Beneath Between And Behind Chords & Tabs

Rush Chords & Tabs

Version: 1 Type: Tab 0 ratings
1 star 2 stars 3 stars 4 stars 5 stars
comments

Beneath Between And Behind Tab

----------------------------------------------------------------------------
                   "BENEATH BETWEEN AND BEHIND" - Rush
----------------------------------------------------------------------------

Kenneth Dale Harris IV
kenny@kdharris.net
Standard Tuning
Introduction      |  Main Riff
e--------|--------|----------------------------0-|
B-2-3-5~-|-2-3-5~-|-2-3-5-7-8-10---------------0-|
G-0-0-0--|-0-0-0--|-0-0-0-0-0-0----------------1-|
D-2-4-5~-|-2-4-5~-|-2-4-5-7-9-11-0h2p0h2p0-----2-|
A-0-0-0--|-0-0-0--|-0-0-0-0-0-0----------------2-|
E--------|--------|------------------------0-0-0-|
Chorus
e-------------------|-------------------|-------------------|
B-------------------|-------------------|-------------------|
G-------------------|-------------------|-------------------|
D----12----12-------|----12----12-------|----12----12-------|
A-12-10-12-10-12\---|-12-10-12-10-12\---|-12-10-12-10-12\---|
E-10----10----10\-0-|-10----10----10\-0-|-10----10----10\-0-|
[ Tab from: http://www.guitartabs.cc/tabs/r/rush/beneath_between_and_behind_tab.html ]
e----------------------------|----------------------------|
B----------------------------|----------------------------|
G-5-5-5-4-4-4----------------|----------------------------|
D------------7-7-7-5-5-5-4-5-|-7-7-7-5-5-5-4-4-4----------|
A----------------------------|------------------7-7-7-5-4-|
E----------------------------|----------------------------|
(partial) solo 2X
e-----------------------------|-----------------------------|
B-----------------------------|-----------------------------|
G-----------------------2-3-5-|-----------------------4-5-7-|
D------2-2-2-3-3-3-5-5-5------|------4-4-4-5-5-5-7-7-7------|
A-3-3-3-----------------------|-5-5-5-----------------------|
E-----------------------------|-----------------------------|

e-----------------------------|-----------------------------| 
B-----------------------------|-----------------------------|
G-----------------------------|-----------------------------|
D-----------------------0-1-3-|-----------------------2-3-5-|
A------0-0-0-1-1-1-3-3-3------|------2-2-2-3-3-3-5-5-5------|
E-1-1-1-----------------------|-3-3-3-----------------------|
                                                                  
e-----------------------------|-----------------------------|
B-----------------------------|-----------------------------|
G-----------------------------|-----------------------------|
D-----------------------4-5-7-|-----------------------4-5-7-|
A------4-4-4-5-5-5-7-7-7------|------4-4-4-5-5-5-7-7-7------|
E-5-5-5-----------------------|-5-5-5-----------------------|
Play the Intro here.
Then play this.
e--------------------------------------2----|
B-2-2-2-2-----2-2-2-2----2-2-2-2-----2-3-9--|
G-2-2-2-2-----2-2-2-2----2-2-2-2-----2-2-9--|
D-2-2-2-2-----2-2-2-2----2-2-2-2-----2-0-9--|
A-0-0-0-0-----0-0-0-0----0-0-0-0-----0---7--|
E---------3-3---------3-3--------3-3-----0--|
Then you play the chorus again.
Comments