Rush - Bastille Day Chords & Tabs

 

Bastille Day Chords & Tabs

Rush Chords & Tabs

Version: 2 Type: Tab 0 ratings
1 star 2 stars 3 stars 4 stars 5 stars
comments

Bastille Day Tab

   
-------------------------------------------------------------------------------
			     Bastille Day - Rush
-------------------------------------------------------------------------------
Tabbed by: Sir Oinksalot
Email: 

Tuning:
normal
[e]
[B]
[G]
[D]
[A]
[e]


This is what I know, it is probably incorrect, but good luck n_n

 (intro)

e|---------------------------------------------------------------------------|
B|---------------------------------------------------------------------------|
G|---------------------------------------------------------------------------|
D|---------------------------------------------------------------------------|
A|---------------------------------------------------------------------------|
E|--3--5--5--5--5--5---3--5--5--5--5--5---3--5--5--5--5--5--3--2--0----------|

e|---------------------------------------------------------------------------|
B|---------------------------------------------------------------------------|
G|---------------------------------------------------------------------------|
D|---------------------------------------------------------------------------|
A|---------------------------------------------------------------------------|
E|--3--5--5--5--5--5---3--5--5--5--5--5---3--5--5--5--5--5--3--2--0----------|


e|---------------------------------------------------------------------------|
B|---------------------------------------------------------------------------|
G|---------------------------------------------------------------------------|
D|---------------------------------------------------------------------------|
A|---------------------------------------------------------------------------|
E|--5--7--7--7--7--7---5--7--7--7--7--7---5--7--7--7--7--7--5--4--2----------|

e|---------------------------------------------------------------------------|
B|---------------------------------------------------------------------------|
G|---------------------------------------------------------------------------|
D|---------------------------------------------------------------------------|
A|---------------------------------------------------------------------------|
E|--5--7--7--7--7--7---5--7--7--7--7--7---5--7--7--7--7--7--5--4--2----------|


(main part)

e|---------3----3-----3----3-----5----5-----5-----5--------------------------|
B|--0--0---3|4--3|4---3----3-----5----5-----5-----5--------------------------|
G|--1--1---3|5--3|5---3|5--3|5---5|7--5|7---5|6---5|7------------------------|
D|--2--2---3|5--3|5---3|5--3|5---5|7--5|7---5|7---5|7------------------------|
A|--2--2---3----3-----3----3-----5----5-----5|7---5--------------------------|
E|--0--0---3----3-----3----3-----5----5-----5-----5--------------------------|

e|---------3----3-----3----3-----5----5-----5--------------------------------|
B|--0--0---3|4--3|4---3----3-----5----5-----5--------------------------------|
G|--1--1---3|5--3|5---3|5--3|5---5|7--5|7---5|6------------------------------|
D|--2--2---3|5--3|5---3|5--3|5---5|7--5|7---5|7------------------------------|
A|--2--2---3----3-----3----3-----5----5-----5|7------------------------------|
E|--0--0---3----3-----3----3-----5----5-----5--------------------------------|


(chorus) 
   
e|--3-------------------3--3--3------3--3--------2--2--2--2--2--2------------|
B|--3-------------------3--3--3------3--3--------3--3--3--3--3--3------------|
G|--0-------------------0--0--0------0--0--2--2--2--2--2--2--2--2------------|
D|--0-------------------2--2--0------0--0--2--2------------------------------|
A|--2-----------0h2h3---3--3--2--0---2--2--0--0------------------------------|
E|--3--3--2--3-----------------------3--3--0--0------------------------------|


  (part/riff 1)
[ Tab from: http://www.guitartabs.cc/tabs/r/rush/bastille_day_tab_ver_2.html ]
e|--3----2----5----4----3----5----5----3----2----5----4----------------------|
B|--3----2----5|7--4|6--3----5----5|7--3----2----5|7--4|6--------------------|
G|--3|4--2|3--5|7--4|6--3|4--5|6--5|7--3|4--2|3--5|7--4|6--------------------|
D|--3|5--2|4--5|7--4|6--3|5--5|7--5|7--3|5--2|4--5|7--4|6--------------------|
A|--3|5--2|4--5----4----3|5--5|7--5----3|5--2|4--5----4----------------------|
E|--3----2----5----4----3----5----5----3----2----5----4----------------------|

e|--3----5-------------------------------------------------------------------|
B|--3----5-------------------------------------------------------------------|
G|--3|4--5|6--1--------------------------------------------------------------|
D|--3|5--5|7--2--------------------------------------------------------------|
A|--3|5--5|7--2--------------------------------------------------------------|
E|--3----5----0--------------------------------------------------------------|
 
(part/riff 2)

e|---------------------------------------------------------------------------|
B|---------------------------------------------------------------------------|
G|--7-7-7-------7-7-7-------7-7-7--------------------------------------------|
D|--7-7-7-7-7-7-7-7-7-7-7-7-7-7-7-7-7-7--------------------------------------|
A|--5-5-5-7-7-7-5-5-5-7-7-7-5-5-5-7-7-7--------------------------------------|
E|--------5-5-5-------5-5-5-------5-5-5--------------------------------------|
 
(part/riff 3)

e|---------------------------------------------------------------------------|
B|---------------------------------------------------------------------------|
G|--9-9-9-------9-9-9-------9-9-9--------------------------------------------|
D|--9-9-9-9-9-9-9-9-9-9-9-9-9-9-9-9-9-9--------------------------------------|
A|--7-7-7-9-9-9-7-7-7-9-9-9-7-7-7-9-9-9--------------------------------------|
E|--------7-7-7-------7-7-7-------7-7-7--------------------------------------|

 (part/riff 4)

e|---------------------------------------------------------------------------|
B|---------------------------------------------------------------------------|
G|--7-7-7-------7-7-7--------9-9-9-------9-9-9-------------------------------|
D|--7-7-7-7-7-7-7-7-7-7-7-7--9-9-9-9-9-9-9-9-9-9-9-9-------------------------|
A|--5-5-5-7-7-7-5-5-5-7-7-7--7-7-7-9-9-9-7-7-7-9-9-9-------------------------|
E|--------5-5-5-------5-5-5--------7-7-7-------7-7-7-------------------------|

e|---------------------------------------------------------------------------|
B|---------------------------------------------------------------------------|
G|--5-5-5-------5-5-5---------7-7-7-------7-7-7------------------------------|
D|--5-5-5-5-5-5-5-5-5-5-5-5---7-7-7-7-7-7-7-7-7-7-7-7------------------------|
A|--3-3-3-5-5-5-3-3-3-5-5-5---5-5-5-7-7-7-5-5-5-7-7-7------------------------|
E|--------3-3-3-------3-3-3---------5-5-5-------5-5-5------------------------|

e|---------------------------------------------------------------------------|
B|---------------------------------------------------------------------------|
G|--9-9-9-------9-9-9--------------------------------------------------------|
D|--9-9-9-9-9-9-9-9-9-9-9-9--------------------------------------------------|
A|--7-7-7-9-9-9-7-7-7-9-9-9--------------------------------------------------|
E|--------7-7-7-------7-7-7--------------------------------------------------|

 intro
 Main part X 7
 Chorus X 2
 Main Part X5
 chorus X2
 Riff part 1 X 1
 -Solo (i didn't put it I don't know it sorry)-
 Riff part 2 X 2
 Riff part 3 X 2
 Riff part 4 X 1
 Main part X 3
 Chorus X2
 Riff part 1 X 1
 Riff part 2 X 2
 Riff part 3 X 2
 Riff part 4  1
 Chorus X 2 (slowly. listen to song to see how slow.)
| 
| 
| 
| 
| 
===============================================================================
Comments