Rush - Anthem Chords & Tabs

 

Anthem Chords & Tabs

Rush Chords & Tabs

Version: 4 Type: Tab

Anthem Tab

      *Note 1                          *Note 2
|-----|-----|--------------|-----------|------------------------|
|-----|[5]--|(5)---(5)~~~~~|(5)~~~~~~--|------------------------|
|-----|-----|--------------|-----------|7~7~7~7~7~7~7~7~7~7~7~7~|
|-----|-----|--------------|-----------|------------------------|
|-----|-----|--------------|-----------|------------------------|
|0----|-----|--------------|-----------|------------------------|

  
|------------------------|------------------------|
|------------------------|------------------------|
|7~7~7~7~7~7~7~7~7~7~7~7~|7~7~7~7~7~7~7~7~7~7~7~7~|
|------------------------|------------------------|
|------------------------|------------------------|
|------------------------|------------------------|


 *Note 3
|------------------------|------|
|------------------------|------|
|7b7b7b7b7b7b7b7b7b7b7b7r|------|
|------------------------|-5~---|
|------------------------|------|
|------------------------|------|



 ***Tab expanded to twice normal width for clarity***
|---------------------------------------------------------------|
|----------------------------------------------^1.5-12-h-15-p12-|
|-(0)----------------------------------------14b----------------|
|---------------------------------------------------------------|
|---------------------------------------------------------------|
|---------------------------------------------------------------|
      

|--------------------------------------------------------------------|
|---^1.5-12-h-15-p12---^1.5-12-h-15-p12---^1.5-12-h-15-p12---^1.5-12-|
|-14b----------------14b----------------14b----------------14b-------|
|--------------------------------------------------------------------|
|--------------------------------------------------------------------|
|--------------------------------------------------------------------|

                                                              
|---------15b17.5------------------r17b17.5~----------------------|
|h15-p-12---------------------------------------------------------|
|-----------------------------------------------------------------|
|-----------------------------------------------------------------|
|-----------------------------------------------------------------|
|-----------------------------------------------------------------|

[ Tab from: http://www.guitartabs.cc/tabs/r/rush/anthem_tab_ver_4.html ]
|------r15p12------12---------------12b14.5---------14b14.5~------|
|--------------15-------15b17r15p12-------------------------------|
|-----------------------------------------------------------------|
|-----------------------------------------------------------------|
|-----------------------------------------------------------------|
|-----------------------------------------------------------------|
  
                                               
|-14b14.5~---------------14.5r12-10h12p10--10-------12b14.5r12p10-|
|----------------------------------------12-----------------------|
|-----------------------------------------------------------------|
|-----------------------------------------------------------------|
|-----------------------------------------------------------------|
|-----------------------------------------------------------------|


|-----10------12b14.5r12-p10------10----12----12b14.5r12-p10------|
|-12--------------------------12----------------------------10s12-|
|-----------------------------------------------------------------|
|-----------------------------------------------------------------|
|-----------------------------------------------------------------|
|-----------------------------------------------------------------|


|-10--------------------------------------10----------------------|
|----------------------8------10--10s12---------------------------|
|-----------------7s9---------------------------------------------|
|-----------------------------------------------------------------|
|-----------------------------------------------------------------|
|-----------------------------------------------------------------|


(Tab not so expanded for less clarity)


|---------------------------------------------------------------|
|8s10-8h10p8--7-7-7-8-8-------7-7-------------------------------|
|-----------------------9-9-9-----7-7-7-9-9-6-6-6-7-7-6---6-----|
|-------------------------------------------------------9---9-9-|
|---------------------------------------------------------------|
|---------------------------------------------------------------|


|--------------------------------------------------------------|
|--------------------------------------------------------------|
|--------------------------------------------------------------|
|5-5-5-7-5-----------------------------------------------------|
|----------7-5~5~5~5\-/5~5~5~5~5~5\-/5~5~5~5~5~5\-/5~5~5~5~5~5\|
|--------------------------------------------------------------|


|-----------------------|--------------------------------------------|
|-----------------------|-----------------------8-10-10b12r10p8---8--|
|---------------------7-|-9b12r9p7-7--9-9~--7-9-----------------9---9|
|-----------------5-7---|--------------------------------------------|
|/5~5~5~7-7-7-5-7-------|--------------------------------------------|
|-----------------------|--------------------------------------------|


|----------------------------------------|
|--12b15-12-11-10-8--10-10b12r10p8---8---|
|----------------------------------9---9-|
|----------------------------------------|
|----------------------------------------|
|----------------------------------------|


|-17b19--17b19--17b19~---17b19--17--15h17p15-----------|
|--------------------------------------------17-15b17~-|
|------------------------------------------------------|
|------------------------------------------------------|
|------------------------------------------------------|
|------------------------------------------------------|



 x3
|----------------------------15b17--15b17~--|
|-------12h15p12-15p12-12-12----------------|
|o14b16------------------------------------o|
|o-----------------------------------------o|
|-------------------------------------------|
|-------------------------------------------|