Rush - A Passage To Bangkok Chords & Tabs

 

A Passage To Bangkok Chords & Tabs

Rush Chords & Tabs

Version: 4 Type: Bass Tab 0 ratings
1 star 2 stars 3 stars 4 stars 5 stars
comments

A Passage To Bangkok Bass Tab

   
Tabbed by: fleaflicka
e-mail: jblond89@yahoo.com


tuning: standard E, A, D, G

The other bass tab for this song was pathetic. Sorry, but open your ears, do Geddy some
justice. This is like 99.99% correct. This is one of the best songs they ever wrote.
Listen to the song while playing this tab to get the rhythm. feel free to comment and
please rate!


 **After four times of the guitar playing this, Geddy comes in.


"The natives smile and pass along"
  ________|_________
 {                  }

G|-----------------------------------------|
D|-----2---0---2h0-------------------------| ~~~~~~~~~~~ repeat x3
A|-----------------2--2----3---2---3h2-----|
E|--00---0---0----------00---0---0-----3--3|


"we're on the train to Bangkok....."
  __________|_________
 {                    }
G|-----0-4-2----7h5-4-2------------------------------2-4h5-4-----------------|
D|2-44------44-4-------4-5h4-5-45h7--------00-2-4-00---------00--5h4-5h45-7--|
A|---------------------------------0-0-3h4-----------------------------------|
E|-------------------------------------------------------------------------3-|


"The fragrance of Afghanistan..."
  _________|________
 {                  }
G|-----------------------------------------|
D|-----2---0---2h0-------------------------|~~~~~~~~repeat x3
A|-----------------2--2----3---2---3h2-----|
E|--00---0---0----------00---0---0-----3--3|

[ Tab from: http://www.guitartabs.cc/tabs/r/rush/a_passage_to_bangkok_btab_ver_4.html ]
"we're on the train to Bangkok....."
  __________|_________
 {                    }
G|-----0-4-2----7h5-4-2------------------------------2-4h5-4-----------------|
D|2-44------44-4-------4-5h4-5-45h7--------00-2-4-00---------00--5h4-5h45-7--|
A|---------------------------------0-0-3h4-----------------------------------|
E|-------------------------------------------------------------------------3-|

Guitar Solo

G|-------------------------------------------|
D|-------------------------------------0-----|~~~~~~repeat until end of solo
A|--2-2-2-22---------------------0-0-0---0---|
E|-----------2-2-2-22--h3-3-3-33-------------|


"we're on the train to Bangkok....."
  __________|_________
 {                    }
G|-----0-4-2--7h5-4-2------------------------------2-4h5-4---------------999-|
D|2-44------44-------4-5h4-5-45h7--------00-2-4-00---------00--5h4-5h45-7----|
A|--------------------------------0-0-3h4------------------------------------|
E|---------------------------------------------------------------------------|


"yes, we're on the train to Bangkok....."
  ________|_______
 {                }
G|-----0-4-2-------------------------------------2-4h5-4----------------|
D|2-44------44-4---4-5h4-5-45h7--------00-12-0-0---------00--5h4-5h45-7-|
A|-----------------------------00-33-44---------------------------------|
E|---------------------------------------------------------------------3|

Outro
G|-------------------------|
D|--5-4-5-4------2---0-----|
A|-----------0-------------|
E|-------------------------|
Comments