Rush - A Passage To Bangkok Chords & Tabs

 

A Passage To Bangkok Chords & Tabs

Rush Chords & Tabs

Version: 3 Type: Bass Tab 0 ratings
1 star 2 stars 3 stars 4 stars 5 stars
comments

A Passage To Bangkok Bass Tab

   
Band: Rush
Song: A Passage to Bangkok

This song by Rush is very fun to play, it has rich
sound along with good guitar and bass. I hope you enjoy!
And Please Rate.

Sounds/Effect Needed
|-------------------|
 * = Let Ring
|-------------------|

                    Tip: I would suggest to play the
                         tab along with the song, to 
                         catch the speed and the feel
                         of the song.

                    Tip: Use the time markers to keep
                         Yourself along with the song.

Tuning: Standard
        E,A,D,G

  -0:00-        -0:02-
    |             |
G|----------------------------------------|
D|----------------------------------------|
A|-----7-5-75--------5-3-53---------------|
E|--00---------7--00--------5-------------|

    2 seconds apart
    |             |
G|----------------------------------------|
D|----------------------------------------|
A|-----7-5-75--------5-3-53---------------|
E|--00---------7--00--------5-------------| x10 by -0:38-

  -0:39-        -0:43- 
    |             |                                 -
G|--------------|-------------|                      |
D|--------------|-------------|                      |
A|--3-5-3-5-7-5-|-3-5-3---7---|                      |
E|--------------|-------5---5-|                      |
                                                     |
 -0:48-             -0:52-                           |- Follows Singers
    |                 |                              |  Voice
G|------------------|-----------------------|        |
D|------------------|-----------------------|        |
A|--3-5-3-5-7-----5-|-7-5-7-5---------------|        |
E|------------5-7---|---------5--7*---------|        |
                                                    -
  -1:00-        -1:02-
    |             |
G|----------------------------------------|
D|----------------------------------------|
A|-----7-5-75--------5-3-53---------------|
E|--00---------7--00--------5-------------|

     Start at -1:05-
         |
   2 seconds apart
    |             |
G|----------------------------------------|
D|----------------------------------------|
A|-----7-5-75--------5-3-53---------------|
E|--00---------7--00--------5-------------| x5 by -1:31-
[ Tab from: http://www.guitartabs.cc/tabs/r/rush/a_passage_to_bangkok_btab_ver_3.html ]
  -1:31-        -1:34- 
    |             |                                 -
G|--------------|-------------|                      |
D|--------------|-------------|                      |
A|--3-5-3-5-7-5-|-3-5-3---7---|                      |
E|--------------|-------5---5-|                      |
                                                     |
 -1:39-             -1:44-                           |- Follows Singers
    |                 |                              |  Voice
G|------------------|-----------------------|        |
D|------------------|-----------------------|        |
A|--3-5-3-5-7-----5-|-7-5-7-5---------------|        |
E|------------5-7---|---------5--7*---------|        |
                                                    -
Guitar Solo
 -1:52-                            -2:01-
   |                                  |
G|-------------------------------------|
D|-----------------------------------0-|
A|--77-7-77--55-5-55--33-3-33--55-5-5-7|
E|-------------------------------------|

-2:01-                          -2:10-
  |                                |
G|----------------------------------|
D|--------------------------------0-|
A|7-7-77--55-5-55--33-3-33--55-5-5-7|
E|----------------------------------|

-2:10-                          -2:19-
  |                                |
G|----------------------------------|
D|--------------------------------0-|
A|7-7-77--55-5-55--33-3-33--55-5-5-7|
E|----------------------------------|

-2:19-                          -2:29-
  |                                |
G|----------------------------------|
D|--------------------------------0-|
A|7-7-77--55-5-55--33-3-33--55-5-5-7|
E|----------------------------------|

-2:29-                         -2:38-
  |                              |
G|----------------------------------|
D|----------------------------------|
A|7-7-77--55-5-55--33-3-33--55-5-5*-|
E|----------------------------------|

 -2:41-        -2:45- 
    |             |                                 -
G|--------------|-------------|                      |
D|--------------|-------------|                      |
A|--3-5-3-5-7-5-|-3-5-3---7---|                      |
E|--------------|-------5---5-|                      |
                                                     |
 -2:50-             -2:54-                           |- Follows Singers
    |                 |                              |  Voice
G|------------------|-----------------------|        |
D|------------------|-----------------------|        |
A|--3-5-3-5-7-----5-|-7-5-7-5---------------|        |
E|------------5-7---|---------5--7*---------|        |
                                                    -
 -3:01-        -3:05-       -3:07-
    |             |            |                    -
G|--------------|-------------|--------------|       |
D|--------------|-------------|--------------|       |
A|--3-5-3-5-7-5-|-3-5-3---7---|--3-05-07-09--|       |
E|--------------|-------5---5-|--------------|       |
                                                     |
 -3:10-             -3:14-                           |- Follows Singers
    |                 |                              |  Voice
G|------------------|-----------------------|        |
D|------------------|-----------------------|        |
A|--3-5-3-5-7-----5-|-7-5-7-5---------------|        |
E|------------5-7---|---------5--7*---------|        |
                                                    -
                     |                      |
                      ----------------------
                                 |
                            play twice

Enjoy, and please Rate!
Comments