Running Wild - Rebel At Heart Chords & Tabs

 

Rebel At Heart Chords & Tabs

Running Wild Chords & Tabs

Version: 1 Type: Tab 0 ratings
1 star 2 stars 3 stars 4 stars 5 stars
comments

Rebel At Heart Tab

   
                                                           rebel at heart

                                                                 [ tabs ]

 From Masquerade album

 Transcribed by Ivan Jimenez.
 Email: f3080960@est.fib.upc.es
 Any corrections, mistakes, tricks, and the tab of the solo are welcome.

 --------------------------------------
 As all my other tabs, ONLY RYTHM GUITAR. Sorry folks, I can't do it better!
 Palm muteds are indicated BELOW the guitar lines
 Standard guitar tuning (E-A-D-G-B-e)
 All notes OVER guitar lines are 5ths.
 Song structure and lyrics are at the bottom of the tab.
 To get the correct timing and repetitions of riffs, just listen to the CD.

 Stop cheating, and let's go. Turn on your amp and HAVE FUN!


     Riff 1

    B     A     B       E     A      G   B     A
 |----------------------------------------------------|
 |----------------------------------------------------|
 |--4--4--2--2--4--4----9--9-------------4--4--2------|
 |--4--4--2--2--4--4----9--9--7--7--5----4--4--2------|
 |--2--2--0--0--2--2----7--7--7--7--5----2--2--0------|
 |----------------------------5--5--3-----------------|

         Riff 2
    B                       A                   B   A  F#
 |---------------------------------------------------------|
 |---------------------------------------------------------|
 |-4--4---------------------2-2-----------------4---2------|
 |-4--4---------------------2-2-----------------4---2--4---|
 |-2--2--2-2-2-2-2-2-2-2-2--0-0-0-0-0-0-0-0-0-0-2---0--4---|
 |-----------------------------------------------------2---|

         Riff 3
     D     A   B                            D     A     F#
 |---------------------------------------|------------------|
 |---------------------------------------|------------------|
 |-*-7---------4-----------------------*-|--7-----2-----4---|
 |-*-7------7--4------------2----------*-|--7-----2-----4---|
 |---5------7--2---0--2--4-----4--2--0---|--5-----0-----2---|
 |----------5----------------------------|------------------|
                                       x2
[ Tab from: http://www.guitartabs.cc/tabs/r/running_wild/rebel_at_heart_tab.html ]
         Riff 4
   E              D              A             B     F#
 |-------------------------------------------------------|
 |-------------------------------------------------------|
 |-9--------------7--------------2-------------4-4-------|
 |-9--------------7--------------2-------------4-4--4-4--|
 |-7-7-7-7-7-7-7--5--5-5-5-5-5-5-0-0-0-0-0-0---2-2--4-4--|
 |--------------------------------------------------2-2--|

         Riff 5

   B  A            B  A
 |---------------------------------------|
 |---------------------------------------|
 |---------------------------------------|
 |---------------------------------------|
 |-2-0-0-0-0-0-0--0-2-0--0-0-0--5-4-0-2--|
 |---------------------------------------|

         Riff 6
   B                       D    A    B                 A  G
 |----------------------------------------------------------|
 |----------------------------------------------------------|
 |-4-4---------------------7-7--2-2--4-----------------2----|
 |-4-4---------------------7-7--2-2--4-----------------2--5-|
 |-2-2--2-2-2-2-2-2-2-2-2--5-5--0-0--2--2-2-2-2-2-2-2--0--5-|
 |--------------------------------------------------------3-|



 "Rebel at heart" goes like this:

 [ Intro ] ---> Riff 1

 [ Verse 1 ] -> Riff 2


         They want you to live on their rule,
         to walk just straight in the line
         Big brother, so mean and so cruel,
         so obey and you'll doing fine

 [ Bridge ] --> Riff 3

         Proud you'll be, for all the world to see
         So shed off your fear if you wanna be free

 [ Verse 3 ] -> Riff 2

         They want you, working 9 to 5,
         paying your tax all the way
         They don't care if you're dead or alive,
         but they care what you do or say

 [ Bridge ] --> Riff 3

         Proud you'll be, for all the world to see
         So shed off your fear if you wanna be free

 [ Refrain ] -> Riff 4

         The wind of freedom blows away the binding chain
         Independent minds are sowing their grain
         Boundless power will tear the wall apart
         So don't give in be a rebel at heart

 [ Intro ] ---> Riff 1

 [ Verse 3 ] -> Riff 2

         The pressure group lives on the fal,
         they hate people saying the truth
         They don't want people using their head,
         they don't want a critical youth

 [ Bridge ] --> Riff 3

         Proud you'll be, for all the world to see
         So shed off your fear if you wanna be free

 [ Refrain ] -> Riff 4

         The wind of freedom blows away the binding chain
         Independent minds are sowing their grain
         Boundless power will tear the wall apart
         So don't give in be a rebel at heart

 [ Before Solo ] -> Riff 5

 [ Solo ] -> Riff 6
             Riff 6 (add a tone to all notes: B->C#, D->E, etc..)
             Riff 4

 [ Refrain ] -> Riff 4

         Repeat Riff 4 'til fade out
Comments