Running Wild - Port Royal Chords & Tabs

 

Port Royal Chords & Tabs

Running Wild Chords & Tabs

Version: 1 Type: Tab 0 ratings
1 star 2 stars 3 stars 4 stars 5 stars
comments

Port Royal Tab

                                                               port royal

                                                                 [ tabs ]

 Port Royal

 Transcription by erikgotborn@hotmail.com (erik gotborn)

 Taken from the album "Port Royal".

 Riff 1
 E -----------------------------------------------
 B -----------------------------------------------
 G -----------------------------------------------
 D --0-5-7-0-3-5-2-3-2-3-0-0-5-7-0-10-7-5-3-5-3-0-
 A -----------------------------------------------
 E -----------------------------------------------

 Riff 2
 E ---------------------------------------------------------
 B ---------------------------------------------------------
 G --1-1-1-1-5-x-1-1-1-1-1-5-x-7-1-1-1-1-5-x---------7--5-1-
 D --0-0-0-0-3-x-0-0-0-0-0-3-x-5-0-0-0-0-3-x-5-5-5-5-5--3-0-
 A ------------------------------------------3-3-3-3--------
 E ---------------------------------------------------------
     x x x x       x x x x       x x x x     x x x x

 Riff 3
 E ---------------------------------------------
 B ---------------------------------------------
 G ---------------------------------------------
 D --7-9--5-7--3-5-2--5-7--7-9--5-7--3-5-3--2-0-
 A ---------------------------------------------
 E ---------------------------------------------

 Riff 4
 E --------------------------------------------------------------
 B --------------------------------------------------------------
 G --------------------------------------------------------------
 D --7--5--7----10--5--7-----------7--5--7-----7---1--7--5--1--5-
 A --5--3--5-----8--3--5--3-5-7-3--5--3--5-----5---0--5--3--0--3-
 E --------------------------------------------------------------
[ Tab from: http://www.guitartabs.cc/tabs/r/running_wild/port_royal_tab.html ]
 Riff 5
 E ------------------------------------------------------------
 B ------------------------------------------------------------
 G ------------------------------------------------------------
 D --7-7--5-5--7-7--5-5--9-10-9-10-7-7--5-5--7-7--5-5--1-3-1-3-
 A --5-5--3-3--5-5--3-3--7--8-7--8-5-5--3-3--5-5--3-3--0-1-0-1-
 E ------------------------------------------------------------
     x x  x x  x x  x x            x x  x x  x x  x x

 Riff 6
 E -------------------------------------
 B -------------------------------------
 G -------------------------------------
 D --7----12----7--5-1--7----12----5----
 A --5----10----5--3-0--5----10----3--5-
 E -----------------------------------3-

 Port Royal

 Riff 1 x6
 Riff 2 x6
 Hundred masts, thirty flags
 An island in the golf of Darien
 Sandglas, bloody heart
 Flying high above the scene

 Marooners with loaded guns
 Are still waiting at the quay
 A hungry fleet from underworld
 "Freedom" is the law they pray

 Riff 3 x2
 Riff 2 x4
 "Black strap", rum and gin
 Sexual freedom all the way
 A rolling dice, an ace of hearts
 One shall win and one’s to pay

 Concord and freedom
 No need for the holy writ
 Rebellions, non-servile
 Spitting on religious hypocrites

 Riff 3 x2
 Riff 4 x2
         Port Royal

         A cry of freedom on the sea

 Riff 5 x2
 Riff 1 x2
 Riff 6 x6
 Riff 2 x6
 When the "Oxford" hits the sea
 Slave driver learns the moses law
 There is no chance, they can’t escape
 They hunt them down and eat ‘em raw

 Gin Lane, New Providence
 It all is now since a long time gone
 But there are still descendants
 Port Royal spirit lives forever on

 Riff 3 x2
 Riff 4 x2
         Port Royal

         A cry of freedom on the sea

 Riff 1 x4
Comments