Running Wild - Evil Spirit Chords & Tabs

 

Evil Spirit Chords & Tabs

Running Wild Chords & Tabs

Version: 1 Type: Tab 0 ratings
1 star 2 stars 3 stars 4 stars 5 stars
comments

Evil Spirit Tab

                                                              evil spirit

                                                                 [ tabs ]

 Transcription by erikgotborn@hotmail.com (erik gotborn)

 Evil Spirit

 From the album "Branded and Exiled".

 Some riffs are played with muted strings, and I havenít count how many
 times they play on every chord so you have to figure that out for
 yourself.

 Riff 1
 E ----------------
 B ----------------
 G ----------------
 D --7--5--1-----4-
 A --5--3--0--5--2-
 E -----------3----

 Riff 2
     <-2x->    <---2x-->
 E ----------------------
 B ----------------------
 G ----------------------
 D --4----7----1-------4-
 A --2----5----0----5--2-
 E -----------------3----
     x         x

 Riff 3
     <--2x--->  <---2x-->
 E -----------------------
 B -----------------------
 G -----------------------
 D --4----1--7--1-------4-
 A --2----0--5--0----5--2-
 E ------------------3----
     x          x

 Riff 4
 E ----------------------------
 B ----------------------------
 G ----------------------------
 D --------------------------1-
 A --2---2-3-5--5-2------2-0-0-
 E -----------------3--3-------
                             x
[ Tab from: http://www.guitartabs.cc/tabs/r/running_wild/evil_spirit_tab.html ]
 Riff 5
     <------2x---->  <-----2x---->
 E --------------------------------
 B --------------------------------
 G --------------------------------
 D --4-----7---1--4-------7---1--4-
 A --2-----5---0--2--5----5---0--2-
 E ------------------3-------------
     x               x

 Riff 6
 E --------------------------
 B --------------------------
 G --------------------------
 D --1-4-----7-----1-4-------
 A --0-2-----5-----0-2-----5-
 E ------------------------3-

 Riff 7
 E ----
 B ----
 G ----
 D --4-
 A --2-
 E ----

 EVIL SPIRIT

 Riff 1 x1
 Riff 2 x2
 Riff 3 x2
 A wrinkled gnome sat on the yard
 On this sailing vessel he was the guard
 He may brought safety, or he may brought dread
 If he was treated well, or if he was treated bad

 Riff 4 x2
 Guardian, evil spirit
 Tormentor, evil spirit

 Riff 3 x2
 He watched the blade and his anger grew
 'Cause for his own wealth he skinned hard their crew
 Money and fame were his conviction
 Violence and force were his religion

 Riff 4 x2
 Guardian, evil spirit
 Tormentor, evil spirit

 Riff 5 x1
 Riff 6 x4
 Riff 4 x2
 Guardian, evil spirit
 Tormentor, evil spirit

 Riff 3 x2
 The reef appeared too fast for him
 He tried to duck but wind refreshed
 The yard came down, the gnome was gone
 The blade was dead, justice had won

 Riff 4 x4
 Guardian, evil spirit
 Tormentor, evil spirit

 Riff 7 x1
Comments