Runaways - Cherry Bomb Chords & Tabs

 

Cherry Bomb Chords & Tabs

Runaways Chords & Tabs

Version: 1 Type: Bass Tab 0 ratings
1 star 2 stars 3 stars 4 stars 5 stars
comments

Cherry Bomb Bass Tab

THE RUNAWAYS      Cherry Bomb
Bass tab transcribed by geniefur (grrrl_grrrms@hotmail.com)

Intro:
E -7-7-7-7-7-7-7-7-7|-7-7-7-7-7-7-7-
[ Tab from: http://www.guitartabs.cc/tabs/r/runaways/cherry_bomb_btab.html ]
Verse:
can't stay at home can't stay at school..
G ------------------|---------------
D ------------------|---------------
A ------------------|---------------
E -7-7-7-7-7-7-7-7-7|-7-7-7-7-10----

Chorus:
hello daddy hello mum i'm yr cherry bomb..
G ------------------|------------------
D ------------------|------------------
A -9-12-------------|------------------
E -----7-7-7-7-7-7--|-10-7-7-7-7-7-7-10

* play intro x2
* play verse x3
* chorus x2
* repeat sequence until the guitar solo,
then just keep playing the verse.
Comments