Run Dmc - Walk This Way Chords & Tabs

 

Walk This Way Chords & Tabs

Run Dmc Chords & Tabs

Version: 2 Type: Tab 0 ratings
1 star 2 stars 3 stars 4 stars 5 stars
comments

Walk This Way Tab

   
Walk this way
Run DMC Feat. Aerosmith
Run DMC Greatest hits
Tabbed By: Lloyd Roberts

Iím pretty sure that this tab is 100% correct.
Itís dead easy to play and sounds great so take your time to learn it properly! Itís worth it
Sorry! No solos!

Standard tuning EADGBE

Symbols
h=hammer on
v=vibrato
x=mute

For the intro hammer on to the 2nd and 3rd notes (listen to the song, youíll pick it up)

Intro
E------------------------------------------------
B------------------------------------------------
G------------------------------------------------
D--------------2---------2----------2--------2-v2
A-222--0-h1-h2---0-h1-h2----0-h1-h2---0-h1-h2----
E-------------------------0-------------------3ó
Play that until the verse kicks in
[ Tab from: http://www.guitartabs.cc/tabs/r/run_dmc/walk_this_way_tab_ver_2.html ]
Verse-This is a bit tricky
E------------
B------------
G-9---9-9ó-9-
D------------
A-10ó12-13-12
E-8---8-8ó-8-
      Play these three chords quite quickly
Keep repeating that for the verse

Somewhere in the verse there are two different bits, fit these in when needed
E-8----------------            E-x-x-x-x-x-x---
B-10-10-10-10-10-10            B-x-x-x-x-x-x---
G-8----------------            G-x-x-x-x-x-x---
D-8----------------            D-x-x-x-x-x-x---
A-8----------------            A-x-x-x-x-x-x---
E-8----------------            E-x-x-x-x-x-x---
Chorus
E-8---8ó-8---10
B-8---10-10--10
G-9---10-8---8
D-10ó-8ó-10--8
A-10ó-8ó-8---8
E-8---8ó-8---8

Play that again

Thatís pretty much it; Iíll be back with the solos another time.
Find any mistakes just correct the tab and submit it to ultimate-guitar!

Have fun!
Comments