Rufus Wainwright - In Your Arms Chords & Tabs

 

In Your Arms Chords & Tabs

Rufus Wainwright Chords & Tabs

Version: 1 Type: Tab

In Your Arms Tab

-------------------------------------------------------------------------------
			     SONG NAME - Band Name
-------------------------------------------------------------------------------
Tabbed by:thom myer
Email is Thommyer@hotmail write if there are errors.
The chords are not in time with the song so you may want to hear it out.
The chords are played a few times.
e|-0------------0-----------------------------------------2------------------|
B|-0-----4------0------4-----1-------8------1----1---------------------------|
G|-0-----2------0------2----------------------------------2------------------|
D|---------------------------2--------------2--------1----1---2--------------|
A|-------2-------------2-------------7------4----3---2----2---2--------------|
E|-0------------0------------------------------------------------------------|
[ Tab from: http://www.guitartabs.cc/tabs/r/rufus_wainwright/in_your_arms_tab.html ]
These are the the chords played when the band comes in. Played w/ a jazzy feel.
e|-4-----3-----2------1-----------------------------------------------------|
B|-5-----4-----3------2-----------------------------------------------------|
G|-4-----3-----2------1-----------------------------------------------------|
D|-6-----5-----4------3-----------------------------------------------------|
A|--------------------------------------------------------------------------|
E|-7-----6-----5------4-----------------------------------------------------|

For the next section, i don't know what it's called, you'll need to listen to the song 
the timing, you'll hear it. It's strummed w/ chilled grace.
e|--------------------------------------------------------------------------|
B|---1--------4----couple of times--8--------1-----1------------------------|
G|------------2-------------------------------------------------------------|
D|---2---------------------------------------2----------1-------------------|
A|------------2---------------------7--------4-----3----2-------------------|
E|--------------------------------------------------------------------------|

Hope this helps.