Rufus Wainwright - Hallelujah Chords & Tabs

 

Hallelujah Chords & Tabs

Rufus Wainwright Chords & Tabs

Version: 2 Type: Tab

Hallelujah Tab

   
The Song Starts At Riff Two But I Made Up A Nice Little Intro Riff
h=Hammeron
p=Pull Off
>=Hold            
E--------------------}
A--------------------]
D--------------------]
G--------------------]
B--------------------]
e---0--3-55-5--3-00-X2
Riff 1
E-----------------------}
A-----------------------]
D-----------------------]
G-----------------------]
B----------6--5--3-1p0h1]
e--5--3--0--------------]
Riff 2
E--------------------------------------------------------}
A------3>-------3-2-0-------0--2-3>---ETC.---------------]
D---------2------------2-----------2---------------------]
G-----------0------------2----------0--------------------]
B-------------1------------1---------1-------------------]
e--------------------------------------------------------]


Not Even HardBut Handy Noless Any More To Add E mail Me At www.Warlock.Callan@gmail.com

[ Tab from: http://www.guitartabs.cc/tabs/r/rufus_wainwright/hallelujah_tab_ver_2.html ]