Rufio - Why Wait Chords & Tabs

 

Why Wait Chords & Tabs

Rufio Chords & Tabs

Version: 1 Type: Bass Tab 0 ratings
1 star 2 stars 3 stars 4 stars 5 stars
comments

Why Wait Bass Tab

 Even though their new E.P. is only 3 tracks , it still kicks ass.
This should be pretty PERFECT just listen to the song for timing, really.
         -figured out and submitted by Dejackamo Von Rictor from Barstow CA
> - certain count (play with song)  ~ - let note ring out

intro
G---------------------------
D---------------------------
A------11-122-2-------------
E-44-4----------00-0--22-2--
[ Tab from: http://www.guitartabs.cc/tabs/r/rufio/why_wait_btab.html ]
verse
G------------ you play this 4 times but on every 2nd time go to A--2-- at the end
D------------
A------------
E--4>---0>---

pre-chorus thingie
G------------------
D------------------
A-22-2-2-2-2-2-----
E---------------0~-

chorus
G--------------------------------------------------
D--------------------------------------------------
A--2>----2>----------------------------------------
E-----0>----0000000-2222222--4>--0>--4>-0>-0-0-2~--

Bridge
G-----------------------------------
D-----------------------------------
A-----------------------------------
E-00-0--00-0-00-0--22-2--22-2-44-4--
   "Lizzie McGuire is the hottest of the HOTT"
Comments