Rufio - White Lights Chords & Tabs

 

White Lights Chords & Tabs

Rufio Chords & Tabs

Version: 2 Type: Tab 0 ratings
1 star 2 stars 3 stars 4 stars 5 stars
comments

White Lights Tab

   
Rufio - White Lights
By: xing 

Guitar 1

Intro (this part x3)

e|----------------------------------------|
b|----------------------------------------|
g|----------------------------------------|
D|--6-6x--2-2x--4-4-4--6-6x--2-2x--4-4-4--|
A|--6-6x--2-2x--4-4-4--6-6x--2-2x--4-4-4--|
E|--4-4x--0-0x--2-2-2--4-4x--0-0x--2-2-2--|
    ...   ...   ..........   ...   ...

 

Intro Cont'd
e|------------------------------------------------|
b|------------------------------------------------|
g|------------------------------------------------|
D|--6-6x--2-2x--4-4-4--6-6x--2-2x--4-4-4-4-4-4-4--|
A|--6-6x--2-2x--4-4-4--6-6x--2-2x--4-4-4-4-4-4-4--|
E|--4-4x--0-0x--2-2-2--4-4x--0-0x--2-2-2-2-2-2-2--|
    ...   ...   ..........   ...   .....

Verse (x2)
e|------------------------------------------------------------------------|
b|------------------------------------------------------------------------|
g|------------------------------------------------------------------------|
D|------4----------------4-----------------4-----------------4------------|
A|--------------2----------------2-----2-2---2-2-2-2-2---------------2----|
E|--4-4---4-4-4---4--0-0---0-0-0---0---------------------2-2---2-2-2---2--|

    ...   .....   .  ...   .....   .   ...   .....   .   ...   .....   .

Pre-Chorus
e|-------------------------------------|
b|-------------------------------------|
g|-------------------------------------|
D|--2-2-2x---4-4-4x---2-2-2x---4-4-4x--|
A|--2-2-2x---4-4-4x---2-2-2x---4-4-4x--|
E|--0-0-0x---2-2-2x---0-0-0x---2-2-2x--|

Chorus
e|-------------------------------------------------------------|
b|-------------------------------------------------------------|
g|-------------------------------------------------------------|
D|-6-6-6--2-2-2--4-4-4--4--4-4-4--6-6-6--2-2-2--4-4-4--2-2-2-2-|
A|-6-6-6--2-2-2--4-4-4--2--2-2-2--6-6-6--2-2-2--4-4-4--2-2-2-2-|
E|-4-4-4--0-0-0--2-2-2------------4-4-4--0-0-0--2-2-2--0-0-0-0-|
                                                         ...

Chorus Cont.
e|-------------------------------------------------------------|
b|-------------------------------------------------------------|
g|-------------------------------------------------------------|
D|-6-6-6--2-2-2--4-4-4--4--4-4-4--6-6-6--4-4-4--2-2-2-2-2-2----|
A|-6-6-6--2-2-2--4-4-4--2--2-2-2--6-6-6--4-4-4--2-2-2-2-2-2----|
E|-4-4-4--0-0-0--2-2-2------------4-4-4--2-2-2--0-0-0-0-0-0----|
                                                  .......

Repeat Intro (x2)

Second Verse ("So this is what...")
e|-------------------------------------------------------------------|
b|-------------------------------------------------------------------|
g|-------------------------------------------------------------------|
D|-------------4~--6-6-6-6-6-6-6-6--4-4-4-4-4-4-4-4--2-2-2-2-2-2-2-2-|
A|-----2~--2~--1~--6-6-6-6-6-6-6-6--4-4-4-4-4-4-4-4--2-2-2-2-2-2-2-2-|
E|-4~--------------4-4-4-4-4-4-4-4--2-2-2-2-2-2-2-2--0-0-0-0-0-0-0-0-|
                   ..................................................
Repeat Pre-Chorus
Repeat Chorus

Bridge "I can see whats on..."
e|----------------------------------------------------|
b|----------------------------------------------------|
g|----------------------------------------------------|
D|-6-6-6--2-2-2--4-4-4--4-4-4-4--6-6-6--2-2-2--4--2-2-|
A|-6-6-6--2-2-2--4-4-4--2-2-2-2--6-6-6--2-2-2--4--2-2-|
E|-4-4-4--0-0-0--2-2-2-----------4-4-4--0-0-0--2--0-0-|
     ...    ...    ...    ...      ...    ...     .

Bridge Cont.
e|--------------------------------------------------|
b|--------------------------------------------------|
g|--------------------------------------------------|
D|-6-6-6--2-2-2--4-4-4--4-4-4-4--6-6-6--4-4-4-2-2-2-|
A|-6-6-6--2-2-2--4-4-4--2-2-2-2--6-6-6--4-4-4-2-2-2-|
E|-4-4-4--0-0-0--2-2-2-----------4-4-4--2-2-2-0-0-0-|
     ...    ...    ...    ...      ...    ...   ...

Bridge Cont.
e|----------------------------------------------------------------------|
b|----------------------------------------------------------------------|
g|---------11--------11-11-11--------11-11-11-11/13--13-13--------------|
D|----------x--2-2-2--x--x--x--2-2-2--x--x--x--x--x---x--x---2-2-2-2-2--|
A|----9~----9--2-2-2--9--9--9--2-2-2--2--9--9--9-/11-11-11---2-2-2-2-2--|
E|--0-6~-0-----0-0-0-----------0-0-0-------------------------0-0-0-0-0--|
    .    .                                                          

Bridge Cont.
e|-----------|
b|-----------|
g|-----------|
D|-x-x-x-x---|
A|-x-x-x-x---|
E|-x-x-x-x---|  

Bridge Cont'd
e|------------------------------------------------------------------|
b|------------------------------------------------------------------|
g|------11---------11-11-11--------11-11-11-11/13--13-13------------|
D|-------x--2-2-2---x--x--x--2-2-2--x--x--x--x--x---x--x--6-6-6-6-6-|
A|--9~---9--2-2-2---9--9--9--2-2-2--9--9--9--9/11--11-11--6-6-6-6-6-|
E|--6~------0-0-0------------0-0-0------------------------4-4-4-4-4-|
								    

Bridge Cont.
e|------------------|
b|------------------|
g|-------------11~--|
D|--x-x-x-------x---|
A|--x-x-x-9~----9~--|
E|--x-x-x-6~-0------|
             .

Bridge Cont'd
e|-----------------------------------|
b|-----------------------------------|
g|-----------------------------------|
D|-2-2-2-2-2-2--4-4-4-4-4-4x------4--|
A|-2-2-2-2-2-2--4-4-4-4-4-4x----2----|
E|-0-0-0-0-0-0--2-2-2-2-2-2x--4------|

Repeat Chorus (Start from second chord, E)
Repeat Intro (x2)

Ending
e|-----|
b|-----|
g|-----|
D|-6-6-|
A|-6-6-|
E|-4-4-|
   ....

Guitar Two

Intro (x4)
e|-------------------------------------|
b|-------------------------------------|
g|-----8-------------11---9-8----------|
D|-8-9---9-11-9-8-9-----9-----11-9-8-9-|
A|-------------------------------------|
E|-------------------------------------|
[ Tab from: http://www.guitartabs.cc/tabs/r/rufio/white_lights_tab_ver_2.html ]
Verse (x2) "Honestly..."
e|------------------------------------------------------------------------|
b|------------------------------------------------------------------------|
g|-----8--------6--------4--------4--------8--------6--------4--------4---|
D|-6-6---6--6-6---6--2-2---2--2-2---2--9-9---9--9-9---9--4-4---4--4-4---4-|
A|------------------------------------------------------------------------|
E|------------------------------------------------------------------------|
   ...   . ....   .  ...   . ....   .  ...   .  ...   .  ...   .  ...

Pre-Chorus  "Be honest..."
e|----------------------------------------------------------------------|
b|----------------------------------------------------------------------|
g|-----4-4-4------------------------------4-4-4-------------------------|
D|-2-2-------4-4-4-2-2-2-1-1-1--------4-4-------4-4-4-2-2-2-1-1-1-------|
A|-2-2-------------------------2-2-2--4-4-------------------------2-2-2-|
E|-0-0--------------------------------2-2-------------------------------|

Pre-Chorus Cont.
e|----------------------------------------------------------------------|
b|----------------------------------------------------------------------|
g|-----4-4-4------------------------------4-4-4-------------------------|
D|-2-2-------4-4-4-2-2-2-1-1-1--------4-4-------4-4-4-4-4-4-4-4---------|
A|-2-2-------------------------2-2-2--4-4-------------------------------|
E|-0-0--------------------------------2-2-------------------------------|
						  ...........

Chorus (x2)
e|----------------------------------------------------|
b|-----------------------2-4--------------------------|
g|----------------3-----------------------------------|
D|-----4----4----------4----------4----4--4-----------|
A|---2-----2----2----2----------2-----2---4-2-2-2-2-2-|
E|-4-----0----2---------------4-----0-----2-0-0-0-0-0-|
					    .   ...
Chorus Cont.
e|----------------------------------------------------|
b|-----------------------2-4--------------------------|
g|----------------3-----------------------------------|
D|-----4----4----------4----------4----4--------------|
A|---2-----2----2----2----------2-----2-----2-2-2-2-2-|
E|-4-----0----2---------------4-----0-------0-0-0-0-0-|
					         ....

Guitar THREE Chorus (play it on the last time of chorus)
e|-7-6-4----7---7------------7-6-4---------------|
b|-------7----5---4--4----4--------7-------------|
g|----------------------6------------------------|
D|-------------------------------------2-2-2-2-2-|
A|-------------------------------------2-2-2-2-2-|
E|-------------------------------------0-0-0-0-0-|
                                         ......

Repeat Intro

2nd Verse
e|-------------------------------------------------------------|
b|-------------------------------------------------------------|
g|-----4~--3~----------------------------------4-4-4-4-4-4-4-4-|
D|-6~--x---x-------6-6-6-6-6-6--4-4-4-4-4-4-4------------------|
A|-x---2~--1~--1~----------------------------------------------|
E|-4~----------2~----------------------------------------------|
                   ...........................................

Repeat Pre-Chorus
Repeat Chorus

Bridge-Just Guitar One for a long time

e|------|
b|------|
g|------|
D|-8h9~-| I think this part is played by the bass, but you have
A|------| to have something to do here =)
E|------|

Bridge Cont.
e|---------------------------------------------------------------------|
b|---------------------------------------------------------------------|
g|---------11--4-4-4--11-11-11--4-4-4--11-11-11-11/13-13-13--4-4-4-4-4-|
D|----------x--x-x-x---x--x--x--x-x-x---x--x--x--x--x--x--x--x-x-x-x-x-|
A|----9~----9--2-2-2---9--9--9--2-2-2---9--9--9--9/11-11-11--2-2-2-2-2-|
E|--0-6~-0-------------------------------------------------------------|
    .    .     
                                                       
Bridge Cont.
e|-----------|
b|-----------|
g|-----------|
D|-x-x-x-x---|
A|-x-x-x-x---|
E|-x-x-x-x---|

Bridge Cont'd
e|------------------------------------------------------------------|
b|------------------------------------------------------------------|
g|------11--4-4-4---15-15-15--4-4-4-15-15-15-15/16-16-16--4-4-4-4-4-|
D|-------x--x-x-x----x--x--x--x-x-x--x--x--x--x--x--x--x--x-x-x-x-x-|
A|--9~---9--2-2-2---13-13-13--2-2-2-13-13-13-13/14-14-14--2-2-2-2-2-|
E|--6~--------------------------------------------------------------|
								  
Bridge Cont.
e|------------------|
b|------------------|
g|-------------11~--|
D|--x-x-x-------x---|
A|--x-x-x-9~----9~--|
E|--x-x-x-6~-0------|
             .

Bridge Cont'd
e|-----------------------------|
b|-----------------------------|
g|-----------------------------|
D|-2-2-2-2-2-2--4-4-4-4-4-4x---|
A|-2-2-2-2-2-2--4-4-4-4-4-4x---|
E|-0-0-0-0-0-0--2-2-2-2-2-2x---|  

Last Chorus
e|-------------------------------------------------------------|
b|-------------------------------------------------------------|
g|-------------------------------------------------------------|
D|--------2-2-2--4-4-4--4--4-4-4--6-6-6--2-2-2--4-4-4--2-2-2-2-|
A|--------2-2-2--4-4-4--2--2-2-2--6-6-6--2-2-2--4-4-4--2-2-2-2-|
E|--------0-0-0--2-2-2------------4-4-4--0-0-0--2-2-2--0-0-0-0-|
                                                         ...

Last Chorus Cont.
e|-------------------------------------------------------------|
b|-------------------------------------------------------------|
g|-------------------------------------------------------------|
D|-6-6-6--2-2-2--4-4-4--4--4-4-4--6-6-6--4-4-4--2-2-2-2-2-2----|
A|-6-6-6--2-2-2--4-4-4--2--2-2-2--6-6-6--4-4-4--2-2-2-2-2-2----|
E|-4-4-4--0-0-0--2-2-2------------4-4-4--2-2-2--0-0-0-0-0-0----|
                                                  .......

Last Chorus Cont.
e|----------------------------------------------------|
b|-----------------------2-4--------------------------|
g|----------------3-----------------------------------|
D|-----4----4----------4----------4----4--4-----------|
A|---2-----2----2----2----------2-----2---4-2-2-2-2-2-|
E|-4-----0----2---------------4-----0-----2-0-0-0-0-0-|
					    .   ...
Last Chorus Cont.
e|----------------------------------------------------|
b|-----------------------2-4--------------------------|
g|----------------3-----------------------------------|
D|-----4----4----------4----------4----4--------------|
A|---2-----2----2----2----------2-----2-----2-2-2-2-2-|
E|-4-----0----2---------------4-----0-------0-0-0-0-0-|
                                              .....
(Repeat guitar three during these parts^)

Repeat Intro (x2)

Ending
e|-----|
b|-----|
g|-----|
D|-6-6-|
A|-6-6-|
E|-4-4-|
   ....
Comments