Rufio - White Lights Chords & Tabs

 

White Lights Chords & Tabs

Rufio Chords & Tabs

Version: 1 Type: Tab 1 rating
1 star 2 stars 3 stars 4 stars 5 stars
comments

White Lights Tab

White Lights
1985
Rufio


WHITE LIGHTS


Intro
1----------------------------------------
2----------------------------------------
3-------8------------11---9-8------------
4---8-9---9-11-9-8-9----9-----11-9-8-9---
5----------------------------------------
6---------------------------------------- X4

Verse
1-----------------------------------------------------
2-----------------------------------------------------
3-------4-----4-----4-----4-----4-----4-----4-----3---
4-----------------------------------------------------
5---------------------------2-2---2-2-----------------
6---4-4---4-4---0-0---0-0---------------2-2---2-2----- X2
    x x   x x   x x   x x   x x   x x   x x   x x
[ Tab from: http://www.guitartabs.cc/tabs/r/rufio/white_lights_tab.html ]
Pre-Chorus
1-----------------------------------------------
2-----------------------------------------------
3-----------------------------------------------
4---2-2------4-4------2-2------4-4---44444444---
5---2-2------4-4------2-2------4-4---44444444---
6---0-0------2-2------0-0------2-2---22222222---
                                     xxxxxxxx
Chorus
1---------------------------------------------------
2---------------------------------------------------
3---------------------4-4-4-------------------------
4---6-6-6-2-2-2-4-4-4-4-4-4-6-6-6-2-2-2-4-4444444---
5---6-6-6-2-2-2-4-4-4-2-2-2-6-6-6-2-2-2-4-4444444---
6---4-4-4-0-0-0-2-2-2-------4-4-4-0-0-0-2-2222222---
                                          xxxxxxx 

1---------------------------------------------------
2---------------------------------------------------
3---------------------4-4-4-------------------------
4---6-6-6-2-2-2-4-4-4-4-4-4-6-6-6-4-4-4-2-2222222---
5---6-6-6-2-2-2-4-4-4-2-2-2-6-6-6-4-4-4-2-2222222---
6---4-4-4-0-0-0-2-2-2-------4-4-4-2-2-2-0-0000000---
                                          xxxxxxx
Bridge
1-----------------------------------------
2-----------------------------------------
3---88888888-99999999-88888888-66666666---
4---xxxxxxxx-xxxxxxxx-xxxxxxxx-xxxxxxxx---
5---66666666-77777777-66666666-44444444---
6----------------------------------------- X2

Comments