Rufio - Set It Off Chords & Tabs

 

Set It Off Chords & Tabs

Rufio Chords & Tabs

Version: 2 Type: Tab 0 ratings
1 star 2 stars 3 stars 4 stars 5 stars
comments

Set It Off Tab

   
Set It Off - Rufio
By:Brian (rydoken00x@yahoo.com)
... - palm mute
/ - slide
7x
7x - mute after strumming
5x
x
x - scratching
x
Guitar 1's parts
----------------
Intro (2x)
e|----x-x-x-x-----x-x-------x-x-x-x-----x-x-------x-x-x-x-----x-x--
B|----x-x-x-x-----x-x-------x-x-x-x-----x-x-------x-x-x-x-----x-x--
G|----x-x-x-x-----x-x---7-7-x-x-x-x-7-7-x-x-------x-x-x-x-----x-x--
D|4-4-x-x-x-x-4-4-x-x-2-7-7-x-x-x-x-7-7-x-x-2-4-4-x-x-x-x-4-4-x-x-2
A|4-4-x-x-x-x-4-4-x-x-2-5-5-x-x-x-x-5-5-x-x-2-4-4-x-x-x-x-4-4-x-x-2
E|2-2-x-x-x-x-2-2-x-x-0-----x-x-x-x-----x-x-0-2-2-x-x-x-x-2-2-x-x-0

e|----------------------------
B|----------------------------
G|7-7-7-7-7-------------------
D|7-7-7-7-7-------------------
A|5-5-5-5-5-------------------
E|-----------7-4-5-4-2-0-2----

Verse: "one day, they set it off..."  (2x)
e|---------------------------------------------------------------
B|---------------------------------------------------------------
G|---------------------------------------------------------------
D|4-4-4-4-4-4-4-4-7-7-7-7-7-7-7-7-7-7-7-7-7-7-7-7-2-2-2-2-2-2-2-2
A|4-4-4-4-4-4-4-4-7-7-7-7-7-7-7-7-7-7-7-7-7-7-7-7-2-2-2-2-2-2-2-2
E|2-2-2-2-2-2-2-2-4-4-4-4-4-4-4-4-5-5-5-5-5-5-5-5-0-0-0-0-0-0-0-0
					    . .   . .

Pre-Chorus: "so, help us fight this war..."
e|----------------------------------------------------------------
B|----------------------------------------------------------------
G|----------------------------------------------------------------
D|--7----7----7----9-----7----7----7---9-9-9-9---7----7----7----9-
A|4--4--5-5--9-9--7-7--4--4--5-5--9-9--7-7-7-7-4--4--5-5--9-9--7-7
E|----------------------------------------------------------------
                                       . . .

Pre-Chorus Cont.
e|------------------------------------------------------------------
B|------------------------------------------------------------------
G|-------7-----------------7---------------9----------------9-------
D|---7-------7---------7-------7-------9-------9--------9-------9---
A|55---5---5---5--555----5---5---7--77---7---7---7--777---7---7---7-
E|------------------------------------------------------------------
  .. . . . . . .  ...  . . . . . .  .. . . . . . .  ... . . . . . .
[ Tab from: http://www.guitartabs.cc/tabs/r/rufio/set_it_off_tab_ver_2.html ]
Chorus: "Things never change..."  (2x)
e|-----------------------------------------------
B|-----------------------------------------------
G|------------7-7-7-7-7-7------------------------
D|4-4-4-4-4-4-7-7-7-7-7-7-7-7-7-7-7-7-7-7-7-7-7-7
A|4-4-4-4-4-4-5-5-5-5-5-5-7-7-7-7-7-7-7-7-7-7-7-7
E|2-2-2-2-2-2-------------5-5-5-5-5-5-4-4-4-4-4-4

Intro(1x)

Verse 2: (We're starting...)
e|-----------------------------------------------------------
B|-----------------------------------------------------------
G|-----------------------------------------------------------
D|4-4x-----7-7x-----7-7-7-7-7-7-2-2-2-2-2-2-2-4-4-4-4-4-4-4-4
A|4-4x-----7-7x-----7-7-7-7-7-7-2-2-2-2-2-2-2-4--------------
E|2-2x-----4-4x-----5-5-5-5-5-5-0-0-0-0-0-0-0-2--------------
		              . .   . .       . . . . . . . 

Verse 2 Cont.
e|-----------------------------------------------
B|-----------------------------------------------
G|-----------------------------------------------
D|6-6-6-6-6-6-6-6-7-7-7-7-7-7-7-7-2-2-2-2-2-2-2-2
A|7---------------7---------------2--------------
E|4---------------5---------------0--------------
    . . . . . . .   . . . . . . .   . . . 

Pre-Chorus
Chorus

Bridge: "What will we do..."
 (4x)
e|----------|-------------------------------------------
B|----------|-------------------------------------------
G|7-------9-|-7-------9---7-------9---7-------9---7---9-
D|7----7--9-|-7----7--9---7----7--9---7----7--9---7---9-
A|5----7--7-|-5----7--7---5----7--7---5----7--7---5---7-
E|-----5----|------5-----------5-----------5------------

Outro (some crazy palm muting here)
e|-----------------------------------------------------------
B|-----------------------------------------------------------
G|-----------7-7-7-7-7---------------------------------------
D|4-4--4-4---7-7-7-7-7-7-7-7-7-7-7-7-7-7-7-7-7---4-4-4-4-4-4-
A|4-4--4-4---5-5-5-5-5-7-7-7-7-7-7-7-7-7-7-7-7---4-4-4-4-4-4-
E|2-2--2-2-------------5-5-5-5-5-5-4-4-4-4-4-4---2-2-2-2-2-2-
  . .  .                     ...         ...           ...

Outro Cont.
e|------------------------------------
B|------------------------------------
G|7-7-7-7-7-7-------------------------
D|7-7-7-7-7-7-7-7-7-7-7-7-7-7-7-7-7-7-
A|5-5-5-5-5-5-7-7-7-7-7-7-7-7-7-7-7-7-
E|------------5-5-5-5-5-5-4-4-4-4-4-4-
        ...         ...       ..  ..                         

Ending:
e|---x-x-x---------x-x-x----------------
B|---x-x-x---------x-x-x----------------
G|---x-x-x---------x-x-x----------------
D|-4-x-x-x--4-2--4-x-x-x--4-2--4/-------
A|-4-x-x-x--4-2--4-x-x-x--2-2--4/-------
E|-2-x-x-x--2-0--2-x-x-x--2-0--2/-------

Feel free to email me with corrections
Comments