Rufio - Science Fiction Chords & Tabs

 

Science Fiction Chords & Tabs

Rufio Chords & Tabs

Version: 2 Type: Tab 0 ratings
1 star 2 stars 3 stars 4 stars 5 stars
comments

Science Fiction Tab

Rufio
Science Fiction

Tabbed By: brett j
email if you have corrections or questions!
thejohnsonshome@comcast.net

This song took so long for me and my friend to put together so i hope you like it!
Thats all i got most of it from a friend that rocks at guitar so there you go! have
fun its an awesome song!!!!!!!

Intro
e|------------0-0--------------------------------------------------|
b|--2----------------2-------0----2--------------------------------|
g|----2--1--2------2---2---2-------4--2-1-2-4-2--------------------|
D|-----------------------------------------------------------------|
A|-----------------------------------------------------------------|
E|-----------------------------------------------------------------|

Verse x2
e|-------------------------------------------------|
b|-------------------------------------------------|
g|-------------------------------------------------|
D|-4-4-4-4-4x--4-4-4-4-4x--7-7-7-7-7x--2-2-2-2-2x--|
A|-4-4-4-4-4x--4-4-4-4-4x--7-7-7-7-7x--2-2-2-2-2x--|
E|-2-2-2-2-2x--2-2-2-2-2x--5-5-5-5-5x--0-0-0-0-0x--|

Verse 2 x2
e|------------------------------------------------------------------------|
b|------------------------------------------------------------------------|
g|-------6------6---6---6-6---6-6-------9------9--------------------------|
D|--4-4----4-4----4---4-4-4-4-4-4---7-7---7-7------9----9-----9-9----9-9--|
A|----------------------------------------------------7-7---7-7-7--7-7-7--|
E|------------------------------------------------------------------------|
   
Pre Chorus
e|-----------------------|
b|-----------------------|
g|-----------------------|
D|-7-7--7-7-7--7-7-7-7-7-|
A|-5-5--5-5-5--5-5-5-5-5-|
E|-5-5--5-5-5--5-5-5-5-5-|
       
Pre-Chorus 2
e|-----------------------------------------|
b|--5--------------5---------2---5---------|
g|------2----1----------2-------------2----|
D|----4---4-----4----4----4----4---4----4--|
A|-----------------------------------------|
E|-----------------------------------------|
Repeat Pre-Chorus x2

End of PreChorus
e|-----------------------------------------------------|
b|-----------------------------------------------------|
g|-------------------------9-9-9-9-9-9-9-9-9-9-9-------|
D|--7-7-7--7-7-7--7-7-7-7--9-9-9-9-9-9-9-9-9-9-9-------|
A|--5-5-5--5-5-5--5-5-5-5--7-7-7-7-7-7-7-7-7-7-7-------|
E|--5-5-5--5-5-5--5-5-5-5------------------------------|
          
Chorus 
e|--------------------------------------------------------------------|
b|--------------------------------------------------------------------|
g|--------------------------------------------------------------------|
D|-7-7-7-7-7-7-7-7--2-2-2-2-2-2-2-2--4-4-4-4-4-4-4-4--7-7-7-7-7-7-7-7-|
A|-7-7-7-7-7-7-7-7--2-2-2-2-2-2-2-2--4-4-4-4-4-4-4-4--5-5-5-5-5-5-5-5-|
E|-5-5-5-5-5-5-5-5--0-0-0-0-0-0-0-0--2-2-2-2-2-2-2-2------------------|

Chorus 2
e|-------------------------------------------------------|
b|--5-----------5------------5-----------5------------5--|
g|----2-2-2-2-2----2-2-2-2-4---2-2-2-2-2----2-2-2-2-4----|
D|-------------------------------------------------------|
A|-------------------------------------------------------|
E|-------------------------------------------------------|

Chorus 3
e|--------------------------------------------|
b|------------5-------------------------------|
G|--2-2-2-2-2----2-2-2-2-4-4-2---------2-2-2--|
D|-----------------------------2-2-2-2--------|
A|--------------------------------------------|
E|--------------------------------------------|

Interlude (x2)
e|--12h14p12------12h14p12-----17~--12h14p12------12h14p12-------------|
b|-----------14~-----------14~---------------14~-----------14\10/12~---|
g|---------------------------------------------------------------------|
D|---------------------------------------------------------------------|
A|---------------------------------------------------------------------|
E|---------------------------------------------------------------------|
Repeat Verse
Repeat Pre Chorus x3
Repeat End of Pre Chorus
Repeat Chorus

Bridge x4
e|----------------------------|
b|----------------------------|
g|-6-6-6-6-6-6--9-9x--9-9x----|
D|-4-4-4-4-4-4--7-7x--7-7x----|
A|----------------------------|
E|----------------------------|
     
Bridge 2
e|------------------------------------|
b|------------------------------------|
g|------------------------------------|
D|--7-7-7-7-7-7-7-7--9-9-9-9-9-9-9-9--|
A|--7-7-7-7-7-7-7-7--9-9-9-9-9-9-9-9--|
E|--5-5-5-5-5-5-5-5--7-7-7-7-7-7-7-7--|
[ Tab from: http://www.guitartabs.cc/tabs/r/rufio/science_fiction_tab_ver_2.html ]
End of Bridge
e|--------------------------------------------|
b|--------------------------------------------|
g|--7-7-7-7-7-7-7-7-7-7-7-9-9-9-9-9-9-9-9-9-9-|
D|--7-7-7-7-7-7-7-7-7-7-7-9-9-9-9-9-9-9-9-9-9-|
A|--5-5-5-5-5-5-5-5-5-5-5-7-7-7-7-7-7-7-7-7-7-|
E|--------------------------------------------|
Repeat End of Chorus x2
Repeat Intro x4

Outro x2
e|--------------------------------------------------------------|
b|--------------------------------------------------------------|
g|--------------------------------------------------------------|
D|--7-7-7-7-7-7-7--7-7-7-7-7-7-7--7-7-7-7-7-7-7--6-6-6-6-6-6-6--|
A|--------------------------------------------------------------|
E|--------------------------------------------------------------|
   
2nd guitar
e|------------------------------------|
b|------------------------------------|
g|------------------------------------|
D|--7-7-7-7-7-7-7--2-2-2-2-2-2-2-2-2--|
A|--7-7-7-7-7-7-7--2-2-2-2-2-2-2-2-2--|
E|--5-5-5-5-5-5-5--0-0-0-0-0-0-0-0-0--|
   
Intro x3
e|---------------------------------------------------------------------|
b|---------------------------------------------------------------------|
g|---------------------------------------------------------------------|
D|--4-4-4-4-4-4-4-4-4-4-4-4-4-4-4--7-7-7-7-7-7-7-7--2-2-2-2-2-2-2-2-2--|
A|--4-4-4-4-4-4-4-4-4-4-4-4-4-4-4--7-7-7-7-7-7-7-7--2-2-2-2-2-2-2-2-2--|
E|--2-2-2-2-2-2-2-2-2-2-2-2-2-2-2--5-5-5-5-5-5-5-5--0-0-0-0-0-0-0-0-0--|
    
Verse x2
e|-------------------------------------------------|
b|-------------------------------------------------|
g|-------------------------------------------------|
D|-4-4-4-4-4x--4-4-4-4-4x--7-7-7-7-7x--2-2-2-2-2x--|
A|-4-4-4-4-4x--4-4-4-4-4x--7-7-7-7-7x--2-2-2-2-2x--|
E|-2-2-2-2-2x--2-2-2-2-2x--5-5-5-5-5x--0-0-0-0-0x--|

Verse 2
e|-----------------------------------------------------------------------|
b|--5-2-3-2-0-2--5-2-3-2-0-2--5-2-3-2-5-2-5-2-0-2--5-2-3-2-0-2--5-2-0-2--|
g|-----------------------------------------------------------------------|
D|-----------------------------------------------------------------------|
A|-----------------------------------------------------------------------|
E|-----------------------------------------------------------------------|

Verse 3
e|-----------------------------------------------------------------|
b|--5-2-3-2-0-2--5-2-3-2-0-2--5-2-3-2-5-2-5-2-0-2--5-2-3-2-0-2--5--|
g|-----------------------------------------------------------------|
D|-----------------------------------------------------------------|
A|-----------------------------------------------------------------|
E|-----------------------------------------------------------------|

Pre Chorus  x3
e|---------------------------------------|
b|---------------------------------------|
g|--11-11--11-11-11--11-11-11-11-11-11x--|
D|--11--x---x--x--x---x--x--x--x--x--x---|
A|---9--9---9--9--9---9--9--9--9--9--9x--|
E|---------------------------------------|
          
Pre Chorus 2
e|-------------------------------------------------|
b|-------------------------------------------------|
g|--11-11--11-11-11--11-11-11-11-11-11x--13--------|
D|--11--x---x--x--x---x--x--x--x--x--x----x-16x----|
A|---9--9---9--9--9---9--9--9--9--9--9x--11--------|
E|-------------------------------------------------|
           
Chorus
e|----------------------------------------|
b|----------------------------------------|
g|--6-4-9----9-7-6--------------11--------|
D|--x-x-x-7--x-x-x-7--7-9-11-7---x--16x---|
A|--4-2-7-x--7-5-4-x--x-x--x-x---9--------|
E|--------5--------5--5-7--9-5------------|

Chorus 2
e|-------------------------------------------|
b|-------------------------------------------|
g|--4-6-9----9-7-6-----------------14--------|
D|--x-x-x-7--x-x-x-7--7-9-11-7--9---x--12x---|
A|--2-4-7-x--7-5-4-x--x-x--x-x--x--12--------|
E|--------5--------5--5-7--9-5--7------------|

Interlude
e|--------------------------------------------------------------------|
b|-12h14p12------12h14p12-----17~--12h14p12------12h14p12-------------|
g|-----------14~-----------14~---------------14~-----------14~\9/11~--|
D|--------------------------------------------------------------------|
A|--------------------------------------------------------------------|
E|--------------------------------------------------------------------|
Repeat Verse
Repeat Pre Chorus x3
Repeat Chorus

Bridge Part 1
e|---------------------------------------------|
b|---------------------------------------------|
g|--11-11-11-11-11-----------------------------|
D|--11-11-11-11-11--11-11-11--11-11-12--12-12--|
A|---9--9--9--9--9--11-11-11--11-11-12--12-12--|
E|-------------------9--9--9---9--9-10--10-10--|
Comments