Rufio - Science Fiction Chords & Tabs

 

Science Fiction Chords & Tabs

Rufio Chords & Tabs

Version: 1 Type: Tab 0 ratings
1 star 2 stars 3 stars 4 stars 5 stars
comments

Science Fiction Tab

   
Rufio - Science Fiction
by - xing

Guitar One
Intro (x4)

Intro (x4)
e|----------------------------------------------------------------|
b|--------------5-------------------------------------------------|
g|-6---2--1----------2-----6---2---2---4---6-----1---2-----4---2--|
D|---4---4--4-4----4---4-4---4---2---2---2---2-2---2---2-2---2----|
A|----------------------------------------------------------------|
E|----------------------------------------------------------------|
     .   .  ...    .   ...   .   .   .   .   ...   .   ...   .

Verse (this part x2)

e|-------------------------------------------------|
b|-------------------------------------------------|
g|-------------------------------------------------|
D|-4-4-4-4-4x--4-4-4-4-4x--7-7-7-7-7x--2-2-2-2-2x--|
A|-4-4-4-4-4x--4-4-4-4-4x--7-7-7-7-7x--2-2-2-2-2x--|
E|-2-2-2-2-2x--2-2-2-2-2x--5-5-5-5-5x--0-0-0-0-0x--|

 

Verse Cont'd. (x2)
e|------------------------------------------------------------------------|
b|------------------------------------------------------------------------|
g|-------6------6---6---6-6---6-6-------9------9--------------------------|
D|--4-4----4-4----4---4-4-4-4-4-4---7-7---7-7------9----9-----9-9----9-9--|
A|----------------------------------------------------7-7---7-7-7--7-7-7--|
E|------------------------------------------------------------------------|
    ...    ...    .   .      .      ...   ...    .    .      .     .

Pre-Chorus
e|-----------------------|
b|-----------------------|
g|-----------------------|
D|-7-7--7-7-7--7-7-7-7-7-|
A|-5-5--5-5-5--5-5-5-5-5-|
E|-5-5--5-5-5--5-5-5-5-5-|
        ......

Pre-Chorus Cont'd
e|-----------------------------------------|
b|--5--------------5---------2---5---------|
g|------2----1----------2-------------2----|
D|----4---4-----4----4----4----4---4----4--|
A|-----------------------------------------|
E|-----------------------------------------|
      .   .     .    .    .    .   .    .

Repeat Pre-Chorus (x2)

End of Pre-Chorus
e|-----------------------------------------------------|
b|-----------------------------------------------------|
g|-------------------------9-9-9-9-9-9-9-9-9-9-9-------|
D|--7-7-7--7-7-7--7-7-7-7--9-9-9-9-9-9-9-9-9-9-9-------|
A|--5-5-5--5-5-5--5-5-5-5--7-7-7-7-7-7-7-7-7-7-7-------|
E|--5-5-5--5-5-5--5-5-5-5------------------------------|
           ......

 

Chorus "Don't believe in science fiction..."
e|--------------------------------------------------------------------|
b|--------------------------------------------------------------------|
g|--------------------------------------------------------------------|
D|-7-7-7-7-7-7-7-7--2-2-2-2-2-2-2-2--4-4-4-4-4-4-4-4--7-7-7-7-7-7-7-7-|
A|-7-7-7-7-7-7-7-7--2-2-2-2-2-2-2-2--4-4-4-4-4-4-4-4--5-5-5-5-5-5-5-5-|
E|-5-5-5-5-5-5-5-5--0-0-0-0-0-0-0-0--2-2-2-2-2-2-2-2------------------|

Chorus Cont.
e|-------------------------------------------------------|
b|--5-----------5------------5-----------5------------5--|
g|----2-2-2-2-2----2-2-2-2-4---2-2-2-2-2----2-2-2-2-4----|
D|-------------------------------------------------------|
A|-------------------------------------------------------|
E|-------------------------------------------------------|

Chorus Cont'd.
e|--------------------------------------------|
b|------------5-------------------------------|
G|--2-2-2-2-2----2-2-2-2-4-4-2---------2-2-2--|
D|-----------------------------2-2-2-2--------|
A|--------------------------------------------|
E|--------------------------------------------|

Interlude (x2)
e|--12h14p12------12h14p12-----17~--12h14p12------12h14p12-------------|
b|-----------14~-----------14~---------------14~-----------14\10/12~---|
g|---------------------------------------------------------------------|
D|---------------------------------------------------------------------|
A|---------------------------------------------------------------------|
E|---------------------------------------------------------------------|

Repeat Verse
Repeat Pre-Chorus (x3)
Repeat End of Pre-Chorus
Repeat Chorus

Bridge (x4)
e|----------------------------|
b|----------------------------|
g|-6-6-6-6-6-6--9-9x--9-9x----|
D|-4-4-4-4-4-4--7-7x--7-7x----|
A|----------------------------|
E|----------------------------|
     .........
 
Bridge Cont'd.
e|------------------------------------|
b|------------------------------------|
g|------------------------------------|
D|--7-7-7-7-7-7-7-7--9-9-9-9-9-9-9-9--|
A|--7-7-7-7-7-7-7-7--9-9-9-9-9-9-9-9--|
E|--5-5-5-5-5-5-5-5--7-7-7-7-7-7-7-7--|

End of Bridge
e|--------------------------------------------|
b|--------------------------------------------|
g|--7-7-7-7-7-7-7-7-7-7-7-9-9-9-9-9-9-9-9-9-9-|
D|--7-7-7-7-7-7-7-7-7-7-7-9-9-9-9-9-9-9-9-9-9-|
A|--5-5-5-5-5-5-5-5-5-5-5-7-7-7-7-7-7-7-7-7-7-|
E|--------------------------------------------|

Repeat End of Chorus (x2)
Repeat Intro (x4)

Outro (x2)
e|--------------------------------------------------------------|
b|--------------------------------------------------------------|
g|--------------------------------------------------------------|
D|--7-7-7-7-7-7-7--7-7-7-7-7-7-7--7-7-7-7-7-7-7--6-6-6-6-6-6-6--|
A|--------------------------------------------------------------|
E|--------------------------------------------------------------|
    .............  .............  .............  .............


Guitar Two

Come In With
e|------------------------------------|
b|------------------------------------|
g|------------------------------------|
D|--7-7-7-7-7-7-7--2-2-2-2-2-2-2-2-2--|
A|--7-7-7-7-7-7-7--2-2-2-2-2-2-2-2-2--|
E|--5-5-5-5-5-5-5--0-0-0-0-0-0-0-0-0--|
    .............  .................
[ Tab from: http://www.guitartabs.cc/tabs/r/rufio/science_fiction_tab.html ]
Intro (x3)
e|---------------------------------------------------------------------|
b|---------------------------------------------------------------------|
g|---------------------------------------------------------------------|
D|--4-4-4-4-4-4-4-4-4-4-4-4-4-4-4--7-7-7-7-7-7-7-7--2-2-2-2-2-2-2-2-2--|
A|--4-4-4-4-4-4-4-4-4-4-4-4-4-4-4--7-7-7-7-7-7-7-7--2-2-2-2-2-2-2-2-2--|
E|--2-2-2-2-2-2-2-2-2-2-2-2-2-2-2--5-5-5-5-5-5-5-5--0-0-0-0-0-0-0-0-0--|
    .............................  ...............  .................

Verse (this part x2)
e|-------------------------------------------------|
b|-------------------------------------------------|
g|-------------------------------------------------|
D|-4-4-4-4-4x--4-4-4-4-4x--7-7-7-7-7x--2-2-2-2-2x--|
A|-4-4-4-4-4x--4-4-4-4-4x--7-7-7-7-7x--2-2-2-2-2x--|
E|-2-2-2-2-2x--2-2-2-2-2x--5-5-5-5-5x--0-0-0-0-0x--|

Verse Cont'd.
e|-----------------------------------------------------------------------|
b|--5-2-3-2-0-2--5-2-3-2-0-2--5-2-3-2-5-2-5-2-0-2--5-2-3-2-0-2--5-2-0-2--|
g|-----------------------------------------------------------------------|
D|-----------------------------------------------------------------------|
A|-----------------------------------------------------------------------|
E|-----------------------------------------------------------------------|

Verse Cont'd.
e|-----------------------------------------------------------------|
b|--5-2-3-2-0-2--5-2-3-2-0-2--5-2-3-2-5-2-5-2-0-2--5-2-3-2-0-2--5--|
g|-----------------------------------------------------------------|
D|-----------------------------------------------------------------|
A|-----------------------------------------------------------------|
E|-----------------------------------------------------------------|

 

Pre-Chorus (this part x3)
e|---------------------------------------|
b|---------------------------------------|
g|--11-11--11-11-11--11-11-11-11-11-11x--|
D|--11--x---x--x--x---x--x--x--x--x--x---|
A|---9--9---9--9--9---9--9--9--9--9--9x--|
E|---------------------------------------|
           ........

Pre-Chorus Cont'd.
e|-------------------------------------------------|
b|-------------------------------------------------|
g|--11-11--11-11-11--11-11-11-11-11-11x--13-strum--|
D|--11--x---x--x--x---x--x--x--x--x--x----x-16x----|
A|---9--9---9--9--9---9--9--9--9--9--9x--11--------|
E|-------------------------------------------------|
           ........ 

Chorus
e|----------------------------------------|
b|----------------------------------------|
g|--6-4-9----9-7-6--------------11-strum--|
D|--x-x-x-7--x-x-x-7--7-9-11-7---x--16x---|
A|--4-2-7-x--7-5-4-x--x-x--x-x---9--------|
E|--------5--------5--5-7--9-5------------|

Chorus Cont'd.
e|-------------------------------------------|
b|-------------------------------------------|
g|--4-6-9----9-7-6-----------------14-strum--|
D|--x-x-x-7--x-x-x-7--7-9-11-7--9---x--12x---|
A|--2-4-7-x--7-5-4-x--x-x--x-x--x--12--------|
E|--------5--------5--5-7--9-5--7------------|

Interlude
e|--------------------------------------------------------------------|
b|-12h14p12------12h14p12-----17~--12h14p12------12h14p12-------------|
g|-----------14~-----------14~---------------14~-----------14~\9/11~--|
D|--------------------------------------------------------------------|
A|--------------------------------------------------------------------|
E|--------------------------------------------------------------------|
 
Repeat Verse
Repeat Pre-Chorus (x3)
Repeat Chorus

Bridge Part 1
e|---------------------------------------------|
b|---------------------------------------------|
g|--11-11-11-11-11-----------------------------|
D|--11-11-11-11-11--11-11-11--11-11-12--12-12--|
A|---9--9--9--9--9--11-11-11--11-11-12--12-12--|
E|-------------------9--9--9---9--9-10--10-10--|
                     .....     .....     .....
 

Bridge Cont'd
e|-----------------------------------------|
b|-----------------------------------------|
g|---------------9----------------9--------|
D|-----------------11-9--9----9-9----------|
A|--12--11-12-12-----------12-------12-11--|
E|-----------------------------------------|
    ..     .....      .  ........   .....

Repeat Bridge Part 1
Bridge Cont'd.
e|----------------------------------------------|
b|----------------------------------------------|
g|---------------9--------9------------9--------|
D|-----------------11--9----------9-------------|
A|--12--11-12-12------------12-12---12---12-12--|
E|----------------------------------------------|
                       .    .....   ..   .....

Bridge Cont'd.
e|--------------------------------------------|
b|--------------------------------------------|
g|--11--9-------------------------------------|
D|--------12-11-9--------11--11-11-12--12-12--|
A|----------------12-11--11--11-11-12--12-12--|
E|------------------------9---9--9-10--10-10--|
                              ....     .....
Bridge Cont'd.
e|---------------------------------------------|
b|---------------------------------------------|
g|---------------9--------------------9--------|
D|-----------------11-9--9-------9-------------|
A|--12--11-12-12-----------12-12---12---12-12--|
E|---------------------------------------------|
                           .....   ..   .....

 Repeat Bridge Part 1

Bridge Cont'd
e|---------------------------------------------|
b|---------------------------------------------|
g|---------------9--------------------9--------|
D|-----------------11-9--9-------9-------------|
A|--12--11-12-12-----------12-12---12---12-12--|
E|---------------------------------------------|

                           .....   ..   .....

 

End Of Bridge

e|------------------------------------------------------------------------------------|
b|------------------------------------------------------------------------------------|
G|--11--11-11--11-11-11--11--11-11--11-11-11-13--13-13-13-13-13-14-14-14-14-14-14-14--|
D|---x---x--x---x--x--x---x---x--x---x--x--x--x---x--x--x--x--x--x--x--x--x--x--x--x--|
A|---9---9--9---9--9--9---9---9--9---9--9--9-11--11-11-11-11-11-12-12-12-12-12-12-12--|
E|------------------------------------------------------------------------------------|

 

Repeat Chorus

Repeat Intro (x6) w/different strumming
Comments