Rufio - Over It Chords & Tabs

 

Over It Chords & Tabs

Rufio Chords & Tabs

Version: 1 Type: Tab 0 ratings
1 star 2 stars 3 stars 4 stars 5 stars
comments

Over It Tab

   
-------------------------------------------------------------------------------
			     Over It-RUFiO
-------------------------------------------------------------------------------

Tabbed by:i_eat_goldfish
Email:we_exist1985@yahoo.com

Tuning: STANDARD
this is a new song off of 1985, rufio's new cd, and its the best cd ever! you better check
it out!!!!!!!!

Intro
e|--------------0-------------0--------------------0--------------------------|
B|--------0-------------0--------(x2)--------------0--------------------------|
G|------4---4---------4---4---------------4-----4--4--------------------------|
D|----2-------2-----2-------2-----------2-----2----2--------------------------|
A|--4-------------0-------------------0-----2------0--------------------------|
E|-------------------------------------------------0--------------------------|

Verse "I can't believe..."
e|--------0------0---(x4)----------------------------------------------------|
B|-----0------0--------------------------------------------------------------|
G|----4-4----4-4-----------4-4-4---------------------------------------------|
D|---2---2--2---2----------2-2-2---------------------------------------------|
A|--4------0---------------2-4-0---------------------------------------------|
E|---------------------------------------------------------------------------|

Pre-Chorus "Well it's just so little..."
e|-------------------------------------------------------------------------|
B|----------------5--------------------------------------------------------|
G|--4-4-4-4-4-4-4-4--------------------------------------------------------|
D|--2-2-2-2-2-2-2-2--------------------------------------------------------|
A|--0-2-4-2-0-2-4----------------------------------------------------------|
E|-------------------------------------------------------------------------|

Chorus "I was over it before..."
e|-Guitar 1--------------(Strumming not shown)-----------------------------|
B|-------------------------------------------------------------------------|
G|-----4--6--2-------------------------------------------------------------|
D|--2--4--6--2-------------------------------------------------------------|
A|--2--2--4--0-------------------------------------------------------------|
E|--0----------------------------------------------------------------------|
     Guitar 2
e|---------------------just keep repeating---------------------------------|
B|----5-----5-----5h7------------------------------------------------------|
G|-------4-----4-----------------------------------------------------------|
D|-------------------------------------------------------------------------|
A|-------------------------------------------------------------------------|
E|-------------------------------------------------------------------------|

Verse 2 "I can't believe.."  (listen to cd for strumming)
e|---------------------------------------------------------------------------|
B|------------------------(x4)-then go into...-------------------------------|
G|--6-6-xx------2xxx-------------------------2-2--4--6--2--x-----------------|
D|--6-6-xx------2xxx-------------------------2-2--4--6--2--x-----------------|
A|--4-4-xx-...--0xxx-...---------------------0-0--2--4--0--x...--------------|
E|---------------------------------------------------------------------------|
[ Tab from: http://www.guitartabs.cc/tabs/r/rufio/over_it_tab.html ]
Pre-Chorus
e|--Guitar 1--------------------------------------------------------------------|
B|------------------------------------------------------------------------------|
G|--2--4--6------2--4--6--8--9--------------------------------------------------|
D|--2--4--6---2--2--4--6--8--9--------------------------------------------------|
A|--0--2--4---2--0--2--4--6--7--let it ring-------------------------------------|
E|------------0-----------------------------------------------------------------|

Pre-Chorus
e|-Guitar 2---------------------------------------------------------------------------|
B|------------------------------------------------------------------------------------|
G|--9---11--13------------------------------------------------------------------------|
D|--x---x----x------------------------------------------------------------------------|
A|--7---9---11------------------------------------------------------------------------|
E|------------------------------------------------------------------------------------|

Repeat chorus

Bridge Guitar 1
e|----------------------------------------------------------------------------------|
B|------------(x4)------------------------------------------------------------------|
G|--6-----4---------6--4--2---------------------------------------------------------|
D|--6--2--4---------6--4--2---------------------------------------------------------|
A|--4--2--2---------4--2--0---------------------------------------------------------|
E|-----0----------------------------------------------------------------------------|
  Guitar 2
e|--------------------------(x2)---------------------------------------------|
B|-------------------------------on second time..----------------third time--|
G|--9--16--14--13-11--13-11-----9--8--4--16--14--13-11--13-11----9--8--9-----|
D|--x---x---x---x--x---x--x-----x--x--x---x---x---x--x---x--x----x--x--x-----|
A|--7--14--12--11--9--11--9-----7--6--2--14--12--11--9--11--9----7--6--7-----|
E|---------------------------------------------------------------------------|

You can try to figure out the slower part of the bridge thats clean. i can't.

Repeat Chorus

Outro
e|----Guitar 1---------Guitar 2----------------------------------------------|
B|---------------------------------------------------------------------------|
G|--6--8--9-----------9--11---13---------------------------------------------|
D|--6--8--9-----------x--x----x----------------------------------------------|
A|--4--6--7-----------7--9---11----------------------------------------------|
E|---------------------------------------------------------------------------|


i can't believe that you're wasting your time.
i thought you could find your way back.
you heard my story but heard it all wrong.
not me.
well its just so little , and i can see through you and know it will end.
this distance this secret, is seeping out my skin.
i was over it before
but you brought me back to where i began.
and i'm starting out again
and ill remain here until the end.
i can't believe that you're wasting my time.
honestly, i've heard it all.
bring out your colors of natural glow.
'cause all you want is to know that i'm yours.
and i can't believe in anything.
when our differences are the same.
you're not listening anyway.
its over....

| /  slide up
| \  slide down
| h  hammer-on
| p  pull-off
| ~  vibrato
| +  harmonic
| x  Mute note

=========================================================================
Comments