Rufio - Out Of Control Chords & Tabs

 

Out Of Control Chords & Tabs

Rufio Chords & Tabs

Version: 1 Type: Tab 0 ratings
1 star 2 stars 3 stars 4 stars 5 stars
comments

Out Of Control Tab

Guitar 1
[ Tab from: http://www.guitartabs.cc/tabs/r/rufio/out_of_control_tab.html ]
|---------------0-----------|-----2--0-----2--0--------|
|------2-----------2-----2--|-----------------------2--|
|---------2--1--------2-----|-----------2--------2-----|
|---4-----------------------|--0-----------------------| 
|---------------------------|--------------------------| 
|---------------------------|--------------------------| 

|---------------0-----------|-----0-----0-----0--0-0---|
|------2-----------2--------|-----3-----3-----3--3-3---|
|---------2--1--------2-----|-----2-----2-----2--2-2---|
|---4--------------------0--|--0--0-----0-----0--0-0---|
|---------------------------|--------------------------|
|---------------------------|--------------------------|
Comments