Rufio - Like A Prayer Chords & Tabs

 

Like A Prayer Chords & Tabs

Rufio Chords & Tabs

Version: 1 Type: Bass Tab 0 ratings
1 star 2 stars 3 stars 4 stars 5 stars
comments

Like A Prayer Bass Tab

Intro: (2x) 
G|-----------------------------------------------------------------------------| 
D|-----------------------------------------------------------------------------| 
A|--------5-----------8-8-8-7-7-7------------5----------10-10-10---------------| 
D|0-0-0-------0-0-0-------------------00-0-----0-0-0-------------------------|

G|-----------------------------------------------------------------------------| 
D|-----------------------------------------------------------------------------| 
A|-8-8-8-----------------------------------------------------------------------| 
D|-----------------------------------------------------------------------------|

Chorus(1st): (2x)
G|-----------------------------------------------------------------------------| 
D|-----------------------------------------------------------------------------| 
A|-------------------3-3-3-3-3-3-3-3-1-1-1-1-1-1-1-10-0-0-0-5-5-5-5------------| 
D|3-3-3-3-3-3-3-3--------------------------------------------------------------|

Verses(2x)
G|-----------------------------------------------------------------------------|
D|-----------------------------------------------------------------------------|
A|1-11-1-1--1-11-1-1---------------------------------------------------------|
D|-----------------------------3-33-3-3--3-33-3-3----------------------------|

G|-----------------------------------------------------------------------------|
D|-----------------------------------------------------------------------------|
A|3-33-3-3--3-33-3-3-5-55-5-5--5-55-5-5------------------------------------|
D|-----------------------------------------------------------------------------|

G|-----------------------------------------------------------------------------|
D|-----------------------------------------------------------------------------|
A|1-11-1-1--1-11-1-1---------------------------------------------------------|
D|-----------------------------3-33-3-3--3-33-3-3----------------------------|

G|-----------------------------------------------------------------------------|
D|-------------------------------5787 --------------------------------------|
A|3-33-3-3--3-33-3-3--------------------------------------------------------|
D|-----------------------------------------------------------------------------|

Metal Interlude:
G|-----------------------------------------------------------------------------|
D|-----------------------------------------------------------------------------|
A|-------8-8--------7-7------10-10----------8-8--------------------------------|
D|-00-0------00-0----00-0--------00-0--------------------------------------|

G|-----------------------------------------------------------------------------|
D|-----------------------------------------------------------------------------|
A|-------8-8-------7-7-------10-10--------8------------------------------------|
D|-00-0------00-0----00-0--------00-0--------------------------------------|





Second Verse:
G|-------------------------------------5------5-----5------5------------------|
D|---3---------3-------3----------3-----3-3----3----3-3-----------------------|
A|1-------1-1------1-----1-1--------------------------------------------------|
D|----------------------------------------------------------------------------|

[ Tab from: http://www.guitartabs.cc/tabs/r/rufio/like_a_prayer_btab.html ]
G|-------------------------------------------------------------------------|
D|--------5-------5-------5-----5------3------3-----3------3---------------|
A|-----3-----3-3-------3---3-3-----5----5-5-----5----5-5-------------------|
D|-------------------------------------------------------------------------|

G|------------------------------------5--5---------5--5--------------------|
D|-----3--3-------------3--3-----3-3----3----3-3----3----------------------|
A|1-1---1------1-1------1-------------------------------------------------|
D|-------------------------------------------------------------------------|

G|-------------------------------------------------------------------------|
D|-----------5--5-------5--5---------3--3---5787-----------------------|
A|-----3-3----3----3-3----3-----5-5----5-----------------------------------|
D|-------------------------------------------------------------------------|

Chorus (2nd )
G|-----------------------------------------------------------------------------| 
D|-----------------------------------------------------------------------------| 
A|-------------------3-3-3-3-3-3-3-3-1-1-1-1-1-1-1-10-0-0-0-5-5-5-5------------| 
D|3-3-3-3-3-3-3-3--------------------------------------------------------------|

G|-----------------------------------------------------------------------------| 
D|-----------------------------------------------------------------------------| 
A|-------------------3-3-3-3-3-3-3-3-1-1-1-1-1-1-1-10-0-0-0-5-5-5-5------------| 
D|3-3-3-3-3-3-3-3--------------------------------------------------------------|

G|-----------------------------------------------------------------------------| 
D|-----------------------------------------------------------------------------| 
A|-------------------3-3-3-3-3-3-3-3-1-1-1-1-1-1-1-10-0-0-0-5-5-5-5------------| 
D|3-3-3-3-3-3-3-3--------------------------------------------------------------|

G|-----------------------------------------------------------------------------| 
D|-----------------------------------------------------------------------------| 
A|-------------------3-3-3-3-3-3-3-3-1-1-1-1-1-1-1-1---------------------------| 
D|3-3-3-3-3-3-3-3--------------------------------------------------------------|

G|-10-9-----------------------------------------------------------------------| 
D|-------10-8-7---------------------------------------------------------------| 
A|----------------10----------------------------------------------------------| 
D|--------------------0-------------------------------------------------------|

Bridge:
G|-----------------------------------------------------------------------------| 
D|-----------------------------------------------------------------------------| 
A|-3-3--3-3-3-33-33-3-3-3----------------------------------------------------| 
D|-------------------------------------0-0--0-0-0-00-00-0-0-0----------------|

G|-----------------------------------------------------------------------------| 
D|-----------------------------------------------------------------------------| 
A|-3333333333333333------------------------------------------------------------| 
D|--------------------------0000000000000000-----------------------------------|

Bridge Ending:
G|-----------------------------------------------------------------------------| 
D|33333333333333--build up-----------------------------------------------------| 
A|-----------------------------------------------------------------------------|
D|-----------------------------------------------------------------------------|

Order:
Intro
Chorus(1st)
Verses: (x2)
Metal Interlude
Chorus (1st)
Second Verse
Chorus (2nd)
Bridge
Chorus (2nd)
Comments