Rufio - Follow Me Chords & Tabs

 

Follow Me Chords & Tabs

Rufio Chords & Tabs

Version: 1 Type: Tab 0 ratings
1 star 2 stars 3 stars 4 stars 5 stars
comments

Follow Me Tab

   
-------------------------------------------------------------------------------
			     Follow Me-RUFiO
-------------------------------------------------------------------------------

Tabbed by:i_eat_goldfish
Email:we_exist1985@yahoo.com

Tuning:STANDARD
the best song off 1985!

Beginning of intro is all bass. Guitar comes in at 0:13

Guitar 1
e|------------------------------------------------------------------------------|
B|------13--13----13--13----13--13----13--13----13--13----13--13----------------|
G|----12--12----12--12----12--12----12--12----12--12----12--12------------------|
D|--10--------10--------10--------10--------10--------10------------------------|
A|------------------------------------------------------------------------------|
E|------------------------------------------------------------------------------|

intro cont.
e|------------------------------------------------------------------------------|
B|------------------------------------------------------------------------------|
G|------------------------------------------------------------------------------|
D|--7--5--3--5------------------------------------------------------------------|
A|--7--5--3--5------------------------------------------------------------------|
E|--5--3--1--3------------------------------------------------------------------|

e|------------------------------------------------------------------------------|
B|------13--13----13--13----13--13----13--13----13--13----13--13----------------|
G|----12--12----12--12----12--12----12--12----12--12----12--12------------------|
D|--10--------10--------10--------10--------10--------10------------------------|
A|------------------------------------------------------------------------------|
E|------------------------------------------------------------------------------|


Verse "Inside my heart..."
e|------------------------------------------------------------------------------|
B|------13--13----13--13----13--13----13--13----13--13----13--13----------------|
G|----12--12----12--12----12--12----12--12----12--12----12--12------------------|
D|--10--------10--------10--------10--------10--------10------------------------|
A|------------------------------------------------------------------------------|
E|------------------------------------------------------------------------------|

Pre-Chorus "Soo come home with me.."
e|-------------------------------------------------------------------------------|
B|-------------------------------------------------------------------------------|
G|-----------repeat twice--------------------------------------------------------|
D|------5------------------------------------------------------------------------|
A|--7-3-3-5----------------------------------------------------------------------|
E|--5-1---3----------------------------------------------------------------------|

Chorus "We'll wave, You're gone..."
e|------------------------------------------------------------------------------|
B|------------------------------------------------------------------------------|
G|------------------------------------------------------------------------------|
D|-----------55-----------------------------------------------------------------|
A|--33-55-77-33-----------------------------------------------------------------|
E|--11-33-55--------------------------------------------------------------------|

interlude
e|------------------------------------------------------------------------------|
B|------------------------------------------------------------------------------|
G|------------------------------------------------------------------------------|
D|------------------------------------------------------------------------------|
A|--777-333-555-777-555---------------------------------------------------------|
E|--555-111-333-555-333---------------------------------------------------------|
   p.m.................

Verse 2   strumming not shown
e|------------------------------------------------------------------------------|
B|------------------------------------------------------------------------------|
G|------------------------------------------------------------------------------|
D|--5-2-------------------------------------------------------------------------|
A|--3-0-3-5---------------------------------------------------------------------|
E|------1-3---------------------------------------------------------------------|
   pm......
 Repeat pre-chorus
 Repeat Chorus
 solo/bridge thing is guitar 2
 repeat pre-chorus and chorus (on last chorus just play straight through)

Outro
e|------------------------------------------------------------------------------|
B|----------------------------------------------------end on--------------------|
G|------------------------------------------------------------------------------|
D|------------------555-------------------------------3-------------------------|
A|--777-333-555-777-333-555-777-333-555-777-555-------3-------------------------|
E|--555-111-333-555-----333-555-111-333-555-333-------1-------------------------|
   p.m.........................................


Guitar 2
Intro
e|------------------------------------------------------------------------------|
B|------------------------------------------------------------------------------|
G|--999----999-7-5-5---999-7-5-5-7---5--7-9--5-7-9--5--7------------------------|
D|--xxx----xxx-x-x-x---xxx-x-x-x-x---x--x-x--x-x-x--x--x------------------------|
A|--777----777-5-3-3---777-5-3-3-5---3--5-7--3-5-7--3--5------------------------|
E|------------------------------------------------------------------------------|
[ Tab from: http://www.guitartabs.cc/tabs/r/rufio/follow_me_tab.html ]
e|---------------------------------------------------------------------------|
B|---------------------------------------------------------------------------|
G|---------------------------------------------------------------------------|
D|------------------555------------------------------------------------------|
A|--777-333-555-777-333-555-777-333-555-777-555------------------------------|
E|--555-111-333-555-----333-555-111-333-555-333------------------------------|
   p.m.........................................

Verse 1
e|------------------------------------------------------------------------------|
B|------------------------------------------------------------------------------|
G|------------------------------------------------------------------------------|
D|--555-555-555-555-555-444-222-222-222-222-222-222-----------------------------|
A|--333-333-333-333-333-222-000-000-000-000-000-000-333-333-333-555-555-555-----|
E|--------------------------------------------------111-111-111-333-333-333-----|
  p.m.........................................................................
e|---------------------------------------------------------------------------|
B|---------------------------------------------------------------------------|
G|--999----999-7-5-5---999-7-5-5-4-------------------------------------------|
D|--xxx----xxx-x-x-x---xxx-x-x-x-x-------------------------------------------|
A|--777----777-5-3-3---777-5-3-3-2-------------------------------------------|
E|---------------------------------------------------------------------------|

Pre-Chorus Strumming not shown
e|------------------------------------------------------------------------------|
B|------------------------------------------------------------------------------|
G|--12--10-9--5--7--9--7--9--10-12-14-17-16-12-7--------------------------------|
D|---x--x--x--x--x--x--x--x--x---x--x--x--x--x-x--------------------------------|
A|--10--8--7--3--5--7--5--7--8--10-12-15-14-10-5--------------------------------|
E|------------------------------------------------------------------------------|

Chorus
e|------------------------------------------------------------------------------|
B|----------------------(x2)-------end on---------------------------------------|
G|--12-12-10-10-9-9-5-5--------------12-----------------------------------------|
D|---x--x-x--x--x-x-x-x---------------x-----------------------------------------|
A|--10-10-8--8--7-7-3-3--------------10-----------------------------------------|
E|------------------------------------------------------------------------------|

interlude
e|------------------------------------------------------------------------------|
B|------------------------------------------------------------------------------|
G|------------------------------------------------------------------------------|
D|------------------------------------------------------------------------------|
A|--777-333-555-777-555---------------------------------------------------------|
E|--555-111-333-555-333---------------------------------------------------------|
   p.m.................
 Verse 2               strumming not shown in verse
e|------------------------------------------------------------------------------|
B|------------888-666-55-------------5---5---5---5---4---4---4---4--------------|
G|-----------------------55555555--55-555-555-555-555-555-555-555---------------|
D|--5xxxxxxxxx------------------------------------------------------------------|
A|--3xxxxxxxxx------------------------------------------------------------------|
E|------------------------------------------------------------------------------|
  p.m............................  .. ... ... ... ... ... ... ...

Repeat pre-chorus
Repeat chorus

Solo/Bridge
e|------------------------------------------------------(x2)--------------------|
B|------------------------------------------------------------------------------|
G|--222-5-2-4-2-0-222-5-2-4-2-0-222-5-2-4-2-5-2-5/7-7/88------------------------|
D|------------------------------------------------------------------------------|
A|------------------------------------------------------------------------------|
E|------------------------------------------------------------------------------|
p.m.... . . . . . ... . . . . . ... . . . . . .

Solo Cont'd
e|---------------------------------------------------------------------------|
B|---------------------------------------------------------------------------|
G|-----5-4-----5-4------5-4-5-7-5-4-5----5-4-----5-4-5-5/7777-7/8888---------|
D|--777---5-777----5-777--------------777---5-777----------------------------|
A|---------------------------------------------------------------------------|
E|---------------------------------------------------------------------------|
p.m....     ...      ...              ...     ...

Repeat Pre-Chorus
Repeat Chorus

Outro
e|------------------------------------------------------------------------------|
B|---------------------------------------------end on---------------------------|
G|--555-555-444-555-555-444-555-555-444-555------14-----------------------------|
D|------------------------------------------------x-----------------------------|
A|-----------------------------------------------12-----------------------------|
E|------------------------------------------------------------------------------|

You're all i see these days,
but you're so far away.
This dream is never ending.
You're falling through my
broken mind.
I've been caught up
this time,
finally showing some passion.
These shattered eyes
have broken on the thought of leaving you...
but i must go.
Inside my heart
I'm aching,
spent time on others faking.
You've stolen my heart
and trapped my mind.
I'm giving in
to you
im lost again
i see
there is no difference
we're still alone.
So come home with me tonight.
We'll lay til' dark turns light.
Can't fight
this feeling in myself.
I'm lost in thoughts...
We'll wave.
You're gone.
silence.
evolves,
we'll wave
you're gone,
follow me home.
Something's strange
in me.
I feel the same
for you.
But there is no difference
we're still alone.
There is no need
in crying.
There is no need
in dying.
It makes no difference.
We're still alone.

| /  slide up
| \  slide down
| h  hammer-on
| p  pull-off
| ~  vibrato
| +  harmonic
| x  Mute note

===============================================================================
Comments