Rufio - Face The Truth Chords & Tabs

 

Face The Truth Chords & Tabs

Rufio Chords & Tabs

Version: 1 Type: Tab 0 ratings
1 star 2 stars 3 stars 4 stars 5 stars
comments

Face The Truth Tab

Tabbed by: Bryan Gentz
Email: Blazinhot245@aol.com     

[ Tab from: http://www.guitartabs.cc/tabs/r/rufio/face_the_truth_tab.html ]
e|----------------------------------------------------|
B|----------------------------------------------------|
G|--------0-----------0----------0----------0---------|   \ 
D|-----0-----------0----------0----------0----0-------|____\
A|------------2------------3----------2---------------|     \   
E|-0--------------------------------------------------|      \
             	       	       	       	       	           Play 2x     	      
e|----------------------------------------------------|      /
B|---------------------------------------------0------|     /
G|--------0---------0-----------0--------0-----0------|____/
D|-----0---------0-----------0------------------------|   /
A|------------2----------3-----------2----------------|
E|-0--------------------------------------------------|

e|-----------------------------------|
B|-----------------------------------|
G|------------0------------0---------|
D|---------0----------0--------------|       Play 4x
A|----------------2--------3---------|
E|----0------------------------------|
Comments