Rufio - Countdown Chords & Tabs

 

Countdown Chords & Tabs

Rufio Chords & Tabs

Version: 3 Type: Tab 0 ratings
1 star 2 stars 3 stars 4 stars 5 stars
comments

Countdown Tab

Hey everybody. I looked at a couple of other people's variations of this, and I wasn't
entirely satisfied with any of them and I decided to make my own. Here it is.

                           Rufio: Countdown - Intro
                              Extended Version

=================================================================================
Guitar 1

E|--2---5---2---0---5---2------2---5---2---0---5---2-----2---5---2---0---5---2---|
B|----3---3---3---3---3----------3---3---3---3---3---------3---3---3---3---3-----|
G|-------------------------------------------------------------------------------|
D|-------------------------------------------------------------------------------|
A|-------------------------------------------------------------------------------|
E|-------------------------------------------------------------------------------|

Guitar 2

E|-------------------------------------------------------------------------------|
B|-------------------------------------------------------------------------------|
G|-------------------------------------------------------------------------------|
D|-------------------------------------------------------5555557777775555555555--|
A|-------------------------------------------------------5555557777775555555555--|
E|-------------------------------------------------------3333335555552222223333--|

=================================================================================
Some of this opening riff is very soft on the record, and you may have to turn up your 
to hear it.

Guitar 1

E|--2---5---2---0---5---2------2---5---2---0---5---2-----2---5---2---0---5---2---|
B|----3---3---3---3---3----------3---3---3---3---3---------3---3---3---3---3-----|
G|-------------------------------------------------------------------------------|
D|-------------------------------------------------------------------------------|
A|-------------------------------------------------------------------------------|
E|-------------------------------------------------------------------------------|

Guitar 2
[ Tab from: http://www.guitartabs.cc/tabs/r/rufio/countdown_tab_ver_3.html ]
E|-------------------------------------------------------------------------------|
B|-------------------------------------------------------------------------------|
G|-------------------------------------------------------------------------------|
D|--5555557777775555555555-----5555557777775555555555----5555557777775555555555--|
A|--5555557777775555555555-----5555557777775555555555----5555557777775555555555--|
E|--3333335555552222223333-----3333335555552222223333----3333335555552222223333--|

=================================================================================

Guitar 1

E|--2---5---2---0---5---0------2---5---2---0---5---0-----2---5---2---0---5---0---|
B|----3---3---3---3---3---3------3---3---3---3---3---3-----3---3---3---3---3---3-|
G|-------------------------------------------------------------------------------|
D|-------------------------------------------------------------------------------|
A|-------------------------------------------------------------------------------|
E|-------------------------------------------------------------------------------|

Guitar 2

E|-------------------------------------------------------------------------------|
B|-------------------------------------------------------------------------------|
G|-------------------------------------------------------------------------------|
D|--5555557777775555555555-----5555557777775555555555----5555557777775555555555--|
A|--5555557777775555555555-----5555557777775555555555----5555557777775555555555--|
E|--3333335555552222223333-----3333335555552222223333----3333335555552222223333--|

=================================================================================

Guitar 1

E|--2---5---2---0---5---0----|
B|----3---3---3---3---3---3--|
G|---------------------------|
D|---------------------------|
A|---------------------------|
E|---------------------------|

Guitar 2

E|---------------------------|
B|---------------------------|
G|---------------------------|
D|--5555557777775555555555---|
A|--5555557777775555555555---|
E|--3333335555552222223333---|

=================================================================================
That's as far as I'll take you. The rest of the song is pretty easy to figure
out. I hope I cleared up any questions or concerns you might have. That's all for now.
whereswaldo
Comments