Rufio - Above Me Chords & Tabs

 

Above Me Chords & Tabs

Rufio Chords & Tabs

Version: 4 Type: Tab 0 ratings
1 star 2 stars 3 stars 4 stars 5 stars
comments

Above Me Tab

   
Above Me                                                 Key:    / = slide

Intro:  (6x)
e|---------------------------------------------------------------------------|
B|---------------------------------------------------------------------------|
G|----10-----9---10-----10-----9---10-------10----12----10----9----10----12--|
D|7-7----7-7---7----8-8----8-8---8----12-12----12----12----10---10----10-----|
A|---------------------------------------------------------------------------|
E|---------------------------------------------------------------------------|
  P M    ...   .    ...    ...   .    .. ..     .    .      .    .     .

Bridge: Right before verse)
e|---------------------------------------------------------------------------|
B|---------------------------------------------------------------------------|
G|3-3-3-3-3-3-3-3-5-5-5-5-5-5-5-5--------------------------------------------|
D|3-3-3-3-3-3-3-3-5-5-5-5-5-5-5-5-7-5-4-5-4-2-4-2-0--------------------------|
A|1-1-1-1-1-1-1-1-3-3-3-3-3-3-3-3--------------------------------------------|
E|---------------------------------------------------------------------------|

Verse: "If I were to walk..."  (2x)
e|---------------------------------------------------------------------------|
B|---------------------------------------------------------------------------|
G|7-7-7-7-7-7-7-7-3-3-3-3-3-3-3-3-----------------------------5-5-5-5-5-5-5-5|
D|7-7-7-7-7-7-7-7-3-3-3-3-3-3-3-3-----3---3---3-----3---3---3-5-5-5-5-5-5-5-5|
A|5-5-5-5-5-5-5-5-1-1-1-1-1-1-1-1-3-3-3-3-3-3-3-3-3-3-3-3-3-3-3-3-3-3-3-3-3-3|
E|---------------------------------------------------------------------------|
                                  PM.   .   .   ...   .   .

Verse Cont'd:  
e|---------------------------------------------------------------------------|
B|---------------------------------------------------------------------------|
G|------------10-10-10-10-10-10-9-9-9-9-9-9----------------10-10/9-10--9-----|
D|7-5-4-8-7-5--x--x--x--x--x--x-x-x-x-x-x-x-8-7-5-8/10-8-7--x--x-x--x--x-----|
A|-------------8--8--8--8--8--8-7-7-7-7-7-7-----------------8--8/7--8--7-----|
E|---------------------------------------------------------------------------|

Verse Cont'd:  
e|---------------------------------------------------------------------------|
B|---------------------------------------------------------------------------|
G|5-5-5-5-5-5-10-----10-----10--10-----10-----10-10-10/9-10-9-5-5-5-5-5-5----|
D|5-5-5-5-5-5----7-7----7-7--------8-8----8-8-----x--x-x--x-x-5-5-5-5-5-5----|
A|3-3-3-3-3-3-------------------------------------8--8/7--8-7-3-3-3-3-3-3----|
E|---------------------------------------------------------------------------|
                 PM.    ...        ...    ...

Verse Cont'd:  
e|---------------------------------------------------------------------------|
B|---------------------------------------------------------------------------|
G|10-----10-----10--10-----10-----10-10-10/9-10-9-5-5-5-5-5-5----------------|
D|---7-7----7-7--------8-8----8-8--x--x--x-x--x-x-x-x-x-x-x-x----------------|
A|---------------------------------8--8--8/7--8-7-3-3-3-3-3-3----------------|
E|---------------------------------------------------------------------------|
     PM.    ...        ...    ...
[ Tab from: http://www.guitartabs.cc/tabs/r/rufio/above_me_tab_ver_4.html ]
Chorus:  
e|---------------------------------------------------------------------------|
B|---------------------------------------------------------------------------|
G|3-3-3-3-3-3-3-3-5-5-5-5-5-5-5-5-7-7-7-7-7-7-7-7-2-2-2-2-2-2-2-2------------|
D|3-3-3-3-3-3-3-3-5-5-5-5-5-5-5-5-7-7-7-7-7-7-7-7-2-2-2-2-2-2-2-2------------|
A|1-1-1-1-1-1-1-1-3-3-3-3-3-3-3-3-5-5-5-5-5-5-5-5-0-0-0-0-0-0-0-0------------|
E|---------------------------------------------------------------------------|
  When I..........stars, they.....eyes............bright with....
  Tonight, yet....above me and....fly.............above me.......

Chorus Cont'd:  
e|---------------------------------------------------------------------------|
B|---------------------------------------------------------------------------|
G|3-3-3-3-3-3-3-3-5-5-5-5-5-5-5-5~-------------------------------------------|
D|3-3-3-3-3-3-3-3-5-5-5-5-5-5-5-5~-------------------------------------------|
A|1-1-1-1-1-1-1-1-3-3-3-3-3-3-3-3~-------------------------------------------|
E|---------------------------------------------------------------------------|
  be with.........with.

Repeat Intro (2x)

Bridge:  "To look at the mountains..."   (2x)
e|---------------------------------------------------------------------------|
B|---------------------------------------------------------------------------|
G|3-3-3-3-3-3-7-7-7-7-7-7-------------3-3-3-5-5-5-3-3-3-3-3-3-3-3-5-5-5-5-5-5|
D|3-3-3-3-3-3-7-7-7-7-7-7-7-7-7-7-7-7-3-3-3-5-5-5-3-3-3-3-3-3-3-3-5-5-5-5-5-5|
A|1-1-1-1-1-1-5-5-5-5-5-5-7-7-7-7-7-7-1-1-1-3-3-3-1-1-1-1-1-1-1-1-3-3-3-3-3-3|
E|------------------------5-5-5-5-5-5----------------------------------------|

Repeat Verse

Repeat Chorus

Repeat Intro (2x)

Outro:  
e|---------------------------------------------------------------------------|
B|----------------------------5h6-5----------------------------5h6-5---------|
G|------------7-7-7-7-7-5-5-5------------------7-7-7-7-7-5-5-5---------------|
D|7-7x--8-8x--7-7-7-7-7-5-5-5-------7-7x--8-8x-7-7-7-7-7-5-5-5---------------|
A|7-7x--8-8x--5-5-5-5-5-3-3-3-------7-7x--8-8x-5-5-5-5-5-3-3-3---------------|
E|5-5x--6-6x------------------------5-5x--6-6x-------------------------------|

Outro Cont'd:  
e|---------------------------------------------------------------------------|
B|---------------------------------------------------------------------------|
G|----------------------7-7-7-7-7-7-5-5-5-5-5-5------------------------------|
D|7-7-7-7-7-8-8-8-8-8-8-7-7-7-7-7-7-5-5-5-5-5-5-7-7-7-7-7-8-8-8-8-8-8--------|
A|7-7-7-7-7-8-8-8-8-8-8-5-5-5-5-5-5-3-3-3-3-3-3-7-7-7-7-7-8-8-8-8-8-8--------|
E|5-5-5-5-5-6-6-6-6-6-6-------------------------5-5-5-5-5-6-6-6-6-6-6--------|

Outro Cont'd:  
e|---------------------------------------------------------------------------|
B|---------------------------------------------------------------------------|
G|7-7-7-7-7-7-5-5-5-5-5-5--10-10x--------------------------------------------|
D|7-7-7-7-7-7-5-5-5-5-5-5---x--x---------------------------------------------|
A|5-5-5-5-5-5-3-3-3-3-3-3---8--8x--------------------------------------------|
E|---------------------------------------------------------------------------|

This is a fun song my band likes to play, my name is Nick Espo, I tried to fix it
up a little bit becuz the others were a little harder to play than this,
Have Fun and Enjoy!!!!
Comments