Rudimentary Peni - Him Hymn Chords & Tabs

 

Him Hymn Chords & Tabs

Rudimentary Peni Chords & Tabs

Version: 1 Type: Tab 0 ratings
1 star 2 stars 3 stars 4 stars 5 stars
comments

Him Hymn Tab

   
verse:
e|---------------------------------------------------|
B|---------------------------------------------------|
G|---------------------------------------------------|
D|--7--5--7--5---------------------------------------|
A|--7--5--7--5---------------------------------------|
E|--5--3--5--3---------------------------------------|
[ Tab from: http://www.guitartabs.cc/tabs/r/rudimentary_peni/him_hymn_tab.html ]
chorus:
e|---------------------------------------------------|
B|---------------------------------------------------|
G|--9--9--7--10--------------------------------------|
D|--9--9--7--10--------------------------------------|
A|--7--7--5--8---------------------------------------|
E|---------------------------------------------------|

the last note:
e|---------------------------------------------------|
B|---------------------------------------------------|
G|---------------------------------------------------|
D|--7------------------------------------------------|
A|--7------------------------------------------------|
E|--5------------------------------------------------|

well stum each notes a couple of times.but you'll figure out the order i guess.

| /  slide up
| \  slide down
| h  hammer-on
| p  pull-off
| ~  vibrato
| +  harmonic
| x  Mute note

questions?  crust_and_anguish_life@yahoo.com
Comments