Rudimentary Peni - 1-4 Dead Chords & Tabs

 

1-4 Dead Chords & Tabs

Rudimentary Peni Chords & Tabs

Version: 1 Type: Bass Tab

1-4 Dead Bass Tab

   
Tabbed By : Zak
e-mail: zak72087@msn.com

Tuning:EADG

Intro
G|--2-0-----2-0----0------0-------3-2-0-|
D|2-----4-2------4---44-----44----------|
A|----------------------0------0--------|
E|--------------------------------------|

Verse 1
G|------0000------------|
D|-2222-------44444444--| x3
A|----------------------|
E|----------------------|
[ Tab from: http://www.guitartabs.cc/tabs/r/rudimentary_peni/1_4_dead_btab.html ]
Verse 2
G|-0000-------22222222--|
D|-------4444-----------|
A|----------------------| x3
E|----------------------|

Verse 3
G|-4444-00000-22222222-|
D|---------------------|
A|---------------------|
E|---------------------|

Outro
G-----------3-2-0-|
D------0000-------|
A-0000------------|
E-----------------|

| /  slide up
|   slide down
| h  hammer-on
| p  pull-off
| ~  vibrato
| +  harmonic
| x  Mute note