Rude Buddha - Moonlit Night Chords & Tabs

 

Moonlit Night Chords & Tabs

Rude Buddha Chords & Tabs

Version: 2 Type: Tab 0 ratings
1 star 2 stars 3 stars 4 stars 5 stars
comments

Moonlit Night Tab

This song kicks ass. As does Rude Buddha. If you want to check these guys
out, go to www.rudebuddha.com . If you wanna buy the cd, e mail me and
I'll hook you up! (I'm the head of the street team)
peace!

INTRO
------------------------------------------------------------|
-----10-----------------10----------------------------------|
---11--11----4---6----11--11---4---6------------------------|
-12---------5---7---12--------5---7-------------------------|
-----------5---7-------------5---7--------------------------|
------------------------------------------------------------|

CHORUS
-----------------------------------------------------------|
-----------------------------------------------------------|
-----------------------------------------------------------|
-12-12---5-5---9-9---7-7---REPEAT AS NEEDED----------------|
-12-12---5-5---9-9---7-7-----------------------------------|
-10-10---3-3---7-7---5-5-----------------------------------|
[ Tab from: http://www.guitartabs.cc/tabs/r/rude_buddha/moonlit_night_tab_ver_2.html ]
VERSE 1:
-10-10-10-10---3-3-3-3---5-5-5-5---10-10-10-10--------------------------|
-10-10-10-10---3-3-3-3---5-5-5-5---10-10-10-10--------------------------|
-11-11-11-11---5-5-5-5---7-7-7-7---11-11-11-11--------------------------|REPEAT AS NEEDED
------------------------------------------------------------------------|
------------------------------------------------------------------------|
------------------------------------------------------------------------|

VERSE 2:

-10-10-10-10---3-3---5-5-----------------------------------|
-10-10-10-10---3-3---5-5-----------------------------------|
-11-11-11-11---5-5---7-7---REPEAT AS NEEDED----------------|
-----------------------------------------------------------|
-----------------------------------------------------------|
-----------------------------------------------------------|

BRIDGE (or something... it's another part of the song)
------------------------------------------------------------|
------------------------------------------------------------|
-----------------------------AGAIN, REPEAT AS NEEDED--------|
-5--9-7----5--9-7-12----------------------------------------|
-5--9-7----5--9-7-12----------------------------------------|
-3--7-5----3--7-5-10----------------------------------------|
Comments