Ru2 - My Girlfriend Chords & Tabs

 

My Girlfriend Chords & Tabs

Ru2 Chords & Tabs

Version: 1 Type: Tab 0 ratings
1 star 2 stars 3 stars 4 stars 5 stars
comments

My Girlfriend Tab

-0---0-3---3-2--------2-0-0-0-0-0-0--3-3-3-3-3-3--2-2-2-2-2-2--0-0-0-0-0-0--3-3-3-3-3-3--2-2-2-2-2-2
-0---0-0---0-1------1---0-0-0-0-0-0--0-0-0-0-0-0--1-1-1-1-1-1--0-0-0-0-0-0--0-0-0-0-0-0--1-1-1-1-1-1
-0---0-0---0-2----2-----0-0-0-0-0-0--0-0-0-0-0-0--2-2-2-2-2-2--0-0-0-0-0-0--0-0-0-0-0-0--2-2-2-2-2-2
-3---3-0---0-0--0-------3-3-3-3-3-3--0-0-0-0-0-0--0-0-0-0-0-0--3-3-3-3-3-3--0-0-0-0-0-0--0-0-0-0-0-0
-2---2-2---2-------------2-2-2-2-2-2--2-2-2-2-2-2------------------2-2-2-2-2-2--2-2-2-2-2-2---------
-0---0-3---3-------------0-0-0-0-0-0--3-3-3-3-3-3------------------0-0-0-0-0-0--3-3-3-3-3-3---------
[ Tab from: http://www.guitartabs.cc/tabs/r/ru2/my_girlfriend_tab.html ]
0-0-0-0-0-0--3-3-3-3-3-3--2-2-2-2-2-2--0-0-0-0-0-0--3-3-3-3-3-3--2-2-2-2-2-2-0-0-0--3-3-3--2-2--
0-0-0-0-0-0--0-0-0-0-0-0--1-1-1-1-1-1--0-0-0-0-0-0--0-0-0-0-0-0--1-1-1-1-1-1-0-0-0--0-0-0--1-1--
0-0-0-0-0-0--0-0-0-0-0-0--2-2-2-2-2-2--0-0-0-0-0-0--0-0-0-0-0-0--2-2-2-2-2-2-0-0-0--0-0-0--2-2--
3-3-3-3-3-3--0-0-0-0-0-0--0-0-0-0-0-0--3-3-3-3-3-3--0-0-0-0-0-0--0-0-0-0-0-0-3-3-3--0-0-0--0-0--
2-2-2-2-2-2--2-2-2-2-2-2------------------2-2-2-2-2-2--2-2-2-2-2-2------------------2-2-2--2-2-2
0-0-0-0-0-0--3-3-3-3-3-3------------------0-0-0-0-0-0--3-3-3-3-3-3------------------2-2-2--2-2-2

0-0-0--3-3-3--2-2--0-0-0-0-0-0--3-3-3-3-3-3--2-2-2-2-2-2--0-0-0-0-0-0--3-3-3-3-3-3--2-2-2-2-2-2
0-0-0--0-0-0--1-1--0-0-0-0-0-0--0-0-0-0-0-0--1-1-1-1-1-1--0-0-0-0-0-0--0-0-0-0-0-0--1-1-1-1-1-1
0-0-0--0-0-0--2-2--0-0-0-0-0-0--0-0-0-0-0-0--2-2-2-2-2-2--0-0-0-0-0-0--0-0-0-0-0-0--2-2-2-2-2-2
3-3-3--0-0-0--0-0--3-3-3-3-3-3--0-0-0-0-0-0--0-0-0-0-0-0--3-3-3-3-3-3--0-0-0-0-0-0--0-0-0-0-0-0
2-2-2--2-2-2--------2-2-2-2-2-2--2-2-2-2-2-2------------------2-2-2-2-2-2--2-2-2-2-2-2---------
0-0-0--3-3-3--------0-0-0-0-0-0--3-3-3-3-3-3------------------0-0-0-0-0-0--3-3-3-3-3-3---------

0-0-0--3-3-3--2-2--0-0-0--3-3-3--2-2--
0-0-0--0-0-0--1-1--0-0-0--0-0-0--1-1--
0-0-0--0-0-0--2-2--0-0-0--0-0-0--2-2--
3-3-3--0-0-0--0-0--3-3-3--0-0-0--0-0--
2-2-2--2-2-2--------2-2-2--2-2-2--------
0-0-0--3-3-3--------0-0-0--3-3-3--------

Comments