Royal Assassin - Straight Outta The Eastside Chords & Tabs

 

Straight Outta The Eastside Chords & Tabs

Royal Assassin Chords & Tabs

Version: 1 Type: Bass Tab 0 ratings
1 star 2 stars 3 stars 4 stars 5 stars
comments

Straight Outta The Eastside Bass Tab

Band: Royal Assassin
Song: Straight Outta The Eastside
Style: Pick
Bass Player: Dez
Tabbed by: Brian
Band Homepage: http://royalassassin.8k.com
Copy Right: 2000

Note: Most of you haven't heard this song, so if you do want
to hear it (which it is a good song) you can download it at 
their home page. 
Rest 2 Measures (Not including the glass breaking and sirens)

Intro: 1X (Crack Houses, prostitutes....
=======
G:---------------------------------
D:---------------------------------
A:---------------------------------
E:9/12\5-5-5-5-3-3-51-1-1-1-1-3-3-3


Pre-Verse: 1X
==========
G:----------------------------
D:----------------------------
A:----------------------------
E:5-5-5-5-3-3-5\1-1-1-1-1-3-3-3

[ Tab from: http://www.guitartabs.cc/tabs/r/royal_assassin/straight_outta_the_eastside_btab.html ]
Verse: 5X
======
G:----------------------------
D:----------------------------
A:----------------------------
E:5-5-5-5-3-3-5\1-1-1-1-1-3-3-3


Chorus: 5X
======
G:-----------------------
D:-----------------------
A:--------2-2-2-2-4-4-4-4
E:5-5-5-5----------------


Post-Chorus: 4X
======
G:---------------------------
D:---------------------------
A:--------1-1----------------
E:5-5-5-5-----1-1-1-1-1/5-5-5


Pre-Verse: 2X
==========
G:----------------------------
D:----------------------------
A:----------------------------
E:5-5-5-5-3-3-5\1-1-1-1-1-3-3-3


Verse: 5X
======
G:----------------------------
D:----------------------------
A:----------------------------
E:5-5-5-5-3-3-5\1-1-1-1-1-3-3-3


Chorus: 5X
======
G:-----------------------
D:-----------------------
A:--------2-2-2-2-4-4-4-4
E:5-5-5-5----------------


Post-Chorus: 4X
======
G:---------------------------
D:---------------------------
A:--------1-1----------------
E:5-5-5-5-----1-1-1-1-1/5-5-5

Comments