Roy Orbison - Pretty Woman Chords & Tabs

 

Pretty Woman Chords & Tabs

Roy Orbison Chords & Tabs

Version: 3 Type: Tab 0 ratings
1 star 2 stars 3 stars 4 stars 5 stars
comments

Pretty Woman Tab

   
Artist: Roy Orbison
Song: Pretty Woman
Traducer: ??Meb??: meb017@hotmail.com

Artista: Limp Bizkit
Canci?n: Take a look around
Traductor: ??Meb??: meb017@hotmail.com
>>>>>>>>>>>>>>>>>>>>>>>>>>>>>>> Roy Orbison <<<<<<<<<<<<<<<<<<<<<<<<
>>>>>>>>>>>>>>>>>>>>>>>>>>>>>> Pretty Woman <<<<<<<<<<<<<<<<<<<<<<<<
                              (Song?s Tab)

Ok This is the perfect intro!!! it is pretty exactly, don?t make noise
to this song, ?cause it?s pretty pretty exactly as the original,
excuseme, this is the original...here it is:

Ok Este es el intro perfecto!!! es exactamente igual, no digas que que
no es cierto, porque es exactamente similar que la original, perd?n
esta es la original... aqui esta:

NOTA: SOLO SIGAN LA CANCI?N COMO VA, NO LA REPITAN HASTA QUE LA
INSTRUCCI?N LES DIGA.

NOTE: JUST FOLLOW THE SONG, DON?T REPITE THE NOTES, ONLY IF THE
INSTRUCCIONS SAYS.


1---------------------------------------------|
2---------------------------------------------|        1 time
3---------------------------------------------|
4------------0--------------------------------|        1 vez
5---------2-----------------------------------|
6--0-0-4--------------------------------------|
[ Tab from: http://www.guitartabs.cc/tabs/r/roy_orbison/pretty_woman_tab_ver_3.html ]
till you press the last note, you wait 4 seconds to play another time
and you need to let the cord rings for that 4 seconds.

hasta que presiones la ultima nota, te esperas 4 segundos y vuelves
a tocar lo que est? abajo, y necesitas dejar sonar la ultima nota
en esos 4 segundos de espera.

1---------------------------------------------|
2---------------------------------------------|        1 time
3---------------------------------------------|
4------------0--------------------------------|        1 vez
5---------2-----------------------------------|
6--0-0-4--------------------------------------|

1---------------------------------------------|
2---------------------------------------------|        4 times
3---------------------------------------------|
4------------0--4-2-0-------------------------|        4 veces
5---------2-----------------------------------|
6--0-0-4--------------------------------------|


and when you press the las note is when roy start?s to sing, "Pretty
Woman, Walkin down the street..."!!!
and that?s all, piece of cake.

y cuando tocas la ?ltima nota es cuando roy empieza a cantar,"Pretty
Woman, Walkin down the street..."!!!
y eso es todo, esta de agua vdd???


                                                  By Meb?CopyRight
                                                  Meb(c)2002-2003
                                                  meb017@hotmail.com
Comments