Roxy Music - Virginia Plain Chords & Tabs

 

Virginia Plain Chords & Tabs

Roxy Music Chords & Tabs

Version: 1 Type: Bass Tab 0 ratings
1 star 2 stars 3 stars 4 stars 5 stars
comments

Virginia Plain Bass Tab

-------------------------------------------------------------------------------
			     Virginia Plain-Roxy Music
-------------------------------------------------------------------------------

Tabbed By : Nick

Tuning: Standard


Main Riff (starts at 0.14)
G|------------------------------------------------------------------------------|
D|------------------------------------------------------------------------------|
A|-9-9--9-9--9--9-9-----------------9--9-9--9--9-9------------------------------|
E|------------------9--9-9--9--9-9-----------------9--9-9--9--9-9---------------|
[ Tab from: http://www.guitartabs.cc/tabs/r/roxy_music/virginia_plain_btab.html ]
G|------------------------------------------------------------------------------|
D|----9----9----9----9----9----9----9----9--------------------------------------|
A|---------------------------------------------7--------------------------------|
E|-7----7----7----7----7----7----7----7------------9----------------------------|

Bridge
G|------------------------------------------------------------------------------|
D|------------------------------------------------------------------------------|
A|------------9~-----9~-----9~-----9~-----9~-----9~---9-9-9-9-------------------|
E|--9--9--9------9------9------9------9------9------9----------9-9-9-9-9-9-9-9--|

Main Riff x5
Bridge
Main Riff

Thats it! Listen to the song for timing etc =)
Comments