Roxy Music - She Sells Chords & Tabs

 

She Sells Chords & Tabs

Roxy Music Chords & Tabs

Version: 1 Type: Bass Tab 0 ratings
1 star 2 stars 3 stars 4 stars 5 stars
comments

She Sells Bass Tab

   
Roxy Music She Sells from Siren
Listen to the track for the rhythm
Intro
G|-----|------- ----------------------------------------|
D|-----|-7-7----------------------------------------5-5-|
A|--3--|-----7-8---8--8-7-6-5-5-4-3-5-7-8---8--7-6-5----|
E|-1--1|---------8-----------------------8---8----------|
Verse


Now you're talking...
G|---------------------------------------------------------|
D|-7-7---------7-7-----------------------------------------|
A|-----7-8---8-----7-8---8-7-6-5-5-4-3-5-7--8----8--7-6-5--|
E|---------8-----------8---------------------8----8--------|
[ Tab from: http://www.guitartabs.cc/tabs/r/roxy_music/she_sells_btab.html ]
Instrumental
  G                     E
G|---------------------|--------------------|
D|--------------3-3-3-5|-------------0-0-0-2|
A|---------------------|--------------------|
E|-3-3-3-3-3-3---------|-0-0-0-0-0-0--------|
  G                     E
G|---------------------|--------------------|
D|--------------3-3-3-5|-------------0-0-0-2|
A|---------------------|--------------------|
E|-3-3-3-3-3-3---------|-0-0-0-0-0-0--------|
  F                     D
G|---------------------|------------------7-|
D|-------------1-1-1-3-|------------5-5-5---|
A|---------------------|5-5-5-5-5-5---------|
E|-1-1-1-1-1-1---------|--------------------|
  E
G|---------------------|
D|---------------------|
A|---------------------|
E|-0-0-0-0-0-0-0-0-3---|


Bridge

"9 Till 5...." 
  c          F         c#       c
G|----------|---------|--------|-----------|
D|----------|---------|--------|-----------|
A|-3-3-3-3--|---------|-4-4-4-4|-3-3-5-6-7-|
E|----------|-1-1-1-1-|--------|-----------|

"why, oh why"
  F       E       D#      D      c#         c
G|-------|-------|-------|------|----------|--------|
D|---10--|-------|--8----|------|----------|--------|
A|-8---8-|-7-----|6---6--|-5----|-4-4-4-4--|3-5-6-7-|
E|-------|-------|-------|------|----------|--------|
Comments