Roxy Music - Love Is The Drug Chords & Tabs

 

Love Is The Drug Chords & Tabs

Roxy Music Chords & Tabs

Version: 1 Type: Bass Tab 0 ratings
1 star 2 stars 3 stars 4 stars 5 stars
comments

Love Is The Drug Bass Tab

   
My first attempt at tabbing... please forgive me! I have summarised the main parts for 
the song (there may some bits missing, short variations and some of the timing might be off).

Intro:

G -------------------------------------------------|
D -------------------------------------------------|
A 00-0-0-000-0-0-000-0-0-000-0-0-000-0-0-000-0-0-3-|
E -------------------------------------------------|

Verse part 1:
[ Tab from: http://www.guitartabs.cc/tabs/r/roxy_music/love_is_the_drug_btab.html ]
G -------------------------------------------------------------------|
D -------------------------------------------------------------------|
A 5-535-345-5--------------------3-5535-345-3-3--------------------3-|
E ------------1-1-5-535-345-34535--------------3-5-5-535-345-34535---|

Verse part 2 (end):

G -------------------------------------------|
D -------------------------------------------|
A 7-757-567-7--------------------3-5-535-345-|
E ------------3-3-5-535-345-5-535------------|

?Chorus:

G ------------------|
D --0235----3-2-0---|
A 3---------------3-|
E ------------------|

End:

G -------------------------------|
D --0235-----3-2-0-3-2-0-3-2-0---|
A 3----------------------------3-|
E -------------------------------|
Comments