Roxette - It Must Have Been Love Chords & Tabs

 

It Must Have Been Love Chords & Tabs

Roxette Chords & Tabs

Version: 1 Type: Tab 0 ratings
1 star 2 stars 3 stars 4 stars 5 stars
comments

It Must Have Been Love Tab

Not one of my favorite songs, but it is a very difficult tab to find-an accurate one anyway :)

Roxette
IT MUST HAVE BEEN LOVE


Intro
|---------------------------------|e
|---------------------------------|B
|---------------------------------|G
|-3--2--3--(3)-------------3--2---|D
|-------2--(2)-----0--(0)---------|A
|-------2--(2)--3--3--(3)-------3-|E

Blue is the beginning is the starting point for Verse 2 (after part down below)
It must have been love, but it's over now. (Verse 1-->) Lay a whisper on my pillow
|-----------------------------------------------------------------|e
|-----------------------------------------------------------------|B
|-----------------------------------------------------------------|G
|----2-2-2--3-2-(2)-----2--3--2---------2-0-0-(0)----2-0--0-------|D
|---------------------3---------3-(3)-------------3---------3-(3)-|A
|-3---------------------------------------------------------------|E

2nd line of lyrics is Verse 2-Blue parts are played ONLY on corresponding blue
leave the winter on the ground. I wake up lonely, a stare of silence in the...
that I'm sheltered by your heart But in and outside I turn to water like a...
|-------------------------------------------------------------------------------|e
|-------------------------------------------------------------------------------|B
|-------------------------------------------------------------------------------|G
|-2-2-0-0-(0)------3-2--0-0--(2)------2-0-0-(0)--------0-2--3------2-0-3-(3)--0-|D
|-------------3--------------------------------3---3----------3-----------------|A
|---------------------------------3---------------------------------------------|E

And all around Touch me now, I close my eyes and dream away
 in your_____heart.  And it's a hard__winter's day...
|------------------------------------------------------------------|e
|------------------------------------------------------------------|B
|---------------------------------------------0--(0)-2-------------|G
|-0--2-2------0-0--0---0--0-2------------0------------------0-2----|D
|--------3-3------------------3-(3)---3----3-------------3-------3-|A
|------------------------------------------------------------------|E

Chorus
It must have been love, but it's over now. It must have been good, but I lost...
|-------------------------------------------------------------------------------|e
|----------------------1--------------------------------------------------------|B
|--------------0--0-0-----0-2--(2)-0--------------------------------------------|G
|---0-2-3--(3)-----------------------3--(3)------0-2--(2)-3-(3)--3-3--2-0---0-(0|D
|3------------------------------------------3--3--------------------------3-----|A
|-------------------------------------------------------------------------------|E

It must have been love, but it's over now.________From the time we touched...
|-------------------------------------------------------------------------------|e
|---------------------------1---------------------------------------------------|B
|--------------0-(0)---0-0-----0-2--(2)-0---------------------------------------|G
|0--0-2-3--(3)----------------------------3----------0-2-3-(3)---3-3--2-0---0-(0|D
|---------------------------------------------3-3--3----------------------3-----|A
|-------------------------------------------------------------------------------|E

Make believ - - (Beginning of Verse 2) (Repeat to beginning for rest)
|------------------|e
|------------------|B
|------------------|G
|-2-0-0------------|D
|------------------|A
|------------------|E
[ Tab from: http://www.guitartabs.cc/tabs/r/roxette/it_must_have_been_love_tab.html ]
Chorus II
It must have been love, but it's over now, It's where the water flows, It's...
|-------------------------------------------------------------------------------|e
|---------------------------1---------------------------------------------------|B
|--------------0-(0)---0-0-----0-0-(0)---0--------------------------------------|G
|0--0-2-3--(3)------------------------------3--2-0--(0)-2--------2--0--0--2-3-0-|D
|---------------------------------------------------------3-(3)-----------------|A
|-------------------------------------------------------------------------------|E

Intrumental Solo

It must have been love, but it's over now. It must have been good______
|----------------------------1----------------------------------------------|e
|--------0--(0)-1-(1)---1-1-----1-3--(3)-1-0--(0)---------------0--(0)------|B
|-0--0-2-----------------------------------------------0-2--(2)--------2--0-|G
|-------------------------------------------------3--3----------------------|D
|---------------------------------------------------------------------------|A
|---------------------------------------------------------------------------|E

But I lost it somehow, It must have been love, but It's over now
|------------------------------------------------1--------------------|e
|-0-0------------------------0--(0)-1-(1)---1-1-----1-3--(3)-1-0--(0)-|B
|------2-0---0-(0)---0--0-2-------------------------------------------|G
|----------3----------------------------------------------------------|D
|---------------------------------------------------------------------|A
|---------------------------------------------------------------------|E

From the moment we touched, to the time that ran out.__Yeah, must have been love
|-------------------------------------------------------------------|e
|------------0--(0)--------0-0----------------1---1-3-1--(1)-1-0----|B
|--------0-2--------2--0--------2-0---0-(0)-----------------------2-|G
|-3-3--3----------------------------3-------------------------------|D
|-------------------------------------------------------------------|A
|-------------------------------------------------------------------|E

But it's over now It's all that I wanted, now I'm living without_____
|-------------------1--1-------------------------------------------|e
|-1-1--1----1-(0)--------3-1-3-(3)--3---3-3--3-1---1--(1)----------|B
|---------2--------------------------------------2--------2-0--(0)-|G
|------------------------------------------------------------------|D
|------------------------------------------------------------------|A
|------------------------------------------------------------------|E

It must have been love, but it's over now,________It's where the water flows
|----------------------------1----0--(0)------------------------------|e
|--------0--(0)-1-(1)---1-1-----1--------3-1-(1)---1--0---------------|B
|-0--0-2-------------------------------------------------2--0-2-------|G
|---------------------------------------------------------------3-(3)-|D
|---------------------------------------------------------------------|A
|---------------------------------------------------------------------|E

It's where the wind blows
|-----------------|e
|------------0----|B
|-2--0-----2----0-|G
|-------3---------|D
|-----------------|A
|-----------------|E

Must have been love, but it's over now, Now (REPEAT & FADE)
|-------------------------------------------------|e
|--------0----------0------------0-1--------------|B
|-2-2-2----2---2-2-----2--------------2-----0-(0)-|G
|------------------------3-(3)------------3-------|D
|-------------------------------------------------|A
|-------------------------------------------------|E
Comments