Rotting Christ - Thou Art Blind Chords & Tabs

 

Thou Art Blind Chords & Tabs

Rotting Christ Chords & Tabs

Version: 1 Type: Tab 0 ratings
1 star 2 stars 3 stars 4 stars 5 stars
comments

Thou Art Blind Tab

   
Band:  ROTTING CHRIST
Album: Khronos 666
Song:  Thou Art Blind

Transcribed by:	Chris Humeniuk
Email:  father_death_666@hotmail.com

Tuning:	Standard

Keys:
 / \ - slide
  x  - mute
 ___ - palm mute
  "  - tremelo pick


INTRO:

Note - Gtr 2 is played in the background throughout most the song.

(Gtr 2)
|---------------|
|---------------|
|--------6\4/6--|
|--------x------|
|-4-4-4--4\2/4--|
|---------------| 8x


|---------------------------------------------------------|     |---|
|---------------------------------------------------------|     |---|
|---------------------------------------------------------|     |-6-|
|---------------------------------------------------------|     |-6-|
|-444444-444444-444444-444444-000000-000000-000000-000000-|     |-4-|
|---------------------------------------------------------| 4x  |---|
  _______________________________________________________


VERSE:

|---------------------------------------------------------|
|---------------------------------------------------------|
|---------------------------------------------------------|
|---------------------------------------------------------|
|-444444-444444-444444-444444-000000-000000-000000-000000-|
|---------------------------------------------------------| 3x
  _______________________________________________________
[ Tab from: http://www.guitartabs.cc/tabs/r/rotting_christ/thou_art_blind_tab.html ]
|--------------------------------------------------------|
|--------------------------------------------------------|
|--------------------------------------------------------|
|----------------------------------------------------4-5-|
|-444444-444444-444444-444444-000000-000000-000000-0-2-3-|
|--------------------------------------------------0-2-3-|
  ______________________________________________________


RIFF Aa:

|-----------------------------|     |---|
|-----------------------------|     |---|
|-----------------------------|     |-6-|
|-666666-666666-666666--------|     |-6-|
|-444444-444444-444444-447744-|     |-4-|
|-----------------------------| 4x  |---|
  ___________________________


FILL:
(Gtr 2)
|---------------|
|---------------|
|--------6\4/6--|
|--------x------|
|-4-4-4--4\2/4--|
|---------------| 2x


VERSE


RIFF Ab:

|-----------------------------|
|-----------------------------|
|-----------------------------|
|-666666-666666-666666--------|
|-444444-444444-444444-447744-|
|-----------------------------| 4x
  ___________________________


INTERLUDE:

|-----------------------|     |--------------------------------------|
|-----------------------|     |--------------------------------------|
|-----------------------|     |-6"-----------------------------------|
|-4--4-4-----2--2-2-2-2-|     |-6"-----------------------------------|
|-4--4-4-----2--2-2-2-2-|     |-4"-----------------------------------|
|-2--2-2-0-0-0--0-0-0-0-| 8x  |--------------------------------------|


VERSE


OUTRO:

|-------------------------------|
|-------------------------------|
|-----------------------------6-|
|-666666-666666-666666--------6-|
|-444444-444444-444444-447744-4-|
|-------------------------------|
Comments