Rotting Christ - The First Field Of The Battle Chords & Tabs

 

The First Field Of The Battle Chords & Tabs

Rotting Christ Chords & Tabs

Version: 1 Type: Tab 0 ratings
1 star 2 stars 3 stars 4 stars 5 stars
comments

The First Field Of The Battle Tab

   
Title: The First Field of the Battle

Band: Rotting Christ

Album: Triarchy of the Lost Lovers

Transcribed by: Carlos G. Torres and Adrian Espindola



Note:

In this song the Bass play the same tones that the second

guitar.Try to play it whit feeling.



Guitars are in tone E



NH = Natural harmonic

AH = Artificial harmonic

/  = Slide up / down

PM = Pull Muting

 ~ = vibrato


     PM   Riff 1 (repeat 8 times)

E [------------------------------------------]

B [------------------------------------------]

G [------------------------------------------]  Gtr. 1

D [2---/7-1O------1O-9-5/1O~-9-9~---9-1O-7-5-]

A [O--O------7~------------------------------]

E [------------------------------------------]

  

  

E [------------------------------------------]

B [------------------------------------------]

G [-----------------------9/(7)7-----7-9-5-4-]  Gtr. 2

D [2---/7-1O-5~---1O-9-5--7/(5)5-----5-7-3-2-]

A [O--O--------------------------------------]

E [------------------------------------------]

                                   

                                           ______________  _____________

        Riff 2 (Repeat 2 times)                    1.]          2.]

     PM         PM         PM      AH AH AH AH PM AH AH AH AH PM    

E [----------------------------------------------I--------------]

B [----------------------------------------------I--------------]

G [-----2----------2----------2-----7--9-1O-12---I-7--9-1O--5---] Gtrs.

D [2------2---2------2---2------2--------------2-I------------2-]1 and 2

A [O--O-----O-O--O-----O-O--O-----O------------O-I------------O-]

E [----------------------------------------------I--------------]



                                           ______________  _____________

        Riff 3 (Repeat 2 times)                    1.]          2.]

     PM......   PM......   PM......AH AH AH AH PM AH AH AH AH PM    

E [----------------------------------------------I--------------]

B [----------------------------------------------I--------------]

G [-----2----------2----------2-----7--9-1O-12---I-7--9-1O--5---] Gtrs.

D [2------2---2------2---2------2--------------2-I------------2-]1 and 2

A [O--O-----O-O--O-----O-O--O-----O------------O-I------------O-]

E [----------------------------------------------I--------------]




        Repeat Riff 1 (4 times)

        Repeat Riff 3 (2 times)


  Riff 4 (4 times)

 

E [-----------]

B [-----------]

G [-----------] Gtr. 1 and 2

D [2--2222222-]

A [O--OOOOOOO-]

E [-----------]

        

 

   Riff 5 (2 times)     (Gtr. 1 play Riff 4)

E [-------------------------------------------------]

B [-------------------------------------------------]

G [-------------------------------------------------] Gtr. 2

D [7--777777-1O~~2--2222222--7--777777-9~~2--2222222]

A [--------------O--OOOOOOO---------------O--OOOOOOO]

E [-------------------------------------------------]

        



        Riff 6 (Repeat 2 times)

   Pm....................................

E [--------------------------------------]

B [--------------------------------------]

G [--------------------------------------]  Gtr. 1 and 2

D [--------------------------------------]

A [55555555555555555558888888888888888888]

E [--------------------------------------]

        


[ Tab from: http://www.guitartabs.cc/tabs/r/rotting_christ/the_first_field_of_the_battle_tab.html ]
        



        Repeat Riff 4

        Repeat Riff 5

        Repeat Riff 6

        



        Riff 7  (Repeat 2 times)

E [--------------------------------------------]

B [--------------------------------------------]

G [--------------------------------------------]  Gtr. 1 

D [2---------------------7-----------5---7-5---]

A [O---------5-----------5-----------3---5-3-5-]

E [----------3-------------------------------3-]


E [--------------------------------------------]

B [--------------------------------------------]

G [----/7--9-5~~--7-5-2/1O~-9-9~/(7)-7-9~~-----]  Gtr. 2 

D [2-------------------------------------------]

A [O-------------------------------------------]

E [--------------------------------------------]



                                      End Riff 7

E [--------------------------------------------]

B [--------------------------------------------]

G [--------------------------------------------]  Gtr. 1 

D [2---------------------7-----------5---7-5---]

A [O---------5-----------5-----------3---5-3-5-]

E [----------3-------------------------------3-]



                                      End Riff 7

E [--------------------------------------------]

B [--------------------------------------------]

G [----/7--9-5~~--7-5--------------------------]  Gtr. 2 

D [2------------------5-/7---------------------]

A [O-------------------------------------------]

E [--------------------------------------------]


        Riff 8 (repeat 6 times)

E [--------------------------------------------------------------------]

B [--------------------------------------------------------------------]

G [--------------------------------------------------------------------] 
 

D [1O1O1O1O1O1O99----------1O1O99771212121212129999991O1O1O1O1O1O777777]

A [--------------OOOOOOOOOO--------------------------------------------]

E [--------------------------------------------------------------------]


E [--------------------------------------------------------------]

B [--------------------------------------------------------------]

G [--------------------------------------------------------------] Gtrs. 


D [1O1O1O1O1O1O99----------1O1O9977------------------------------] 1 and 
2

A [--------------OOOOOOOOOO--------1O1O1O1O1O1O888888777777555555]

E [--------------------------------------------------------------]



        Repeat Riff 4

        Repeat Riff 5

        Repeat Riff 6

        Repeat Riff 7

        

Maybe are some mistakes in solo

        Solo Guitar             (Gtr. 1 play Riff 7)         AH

E [------------------------------------------------------]

B [------------8-/1O~~-8-1O-(1O)/13-12-1O/6--------------]

G [7-9-1O--9/1O-----------------------------9~~------9~~-] Gtrs.2 

D [---------------------------------------------9-7-9----]  

A [------------------------------------------------------]

E [------------------------------------------------------]



E [------------------------------------------------]

B [------------------------------------------------]

G [7-9-1O~~9-7-9---7-9-1O/9/7-9---7-9-1O/9/7-9--9~~] Gtrs.2 

D [------------------------------------------------]  

A [------------------------------------------------]

E [------------------------------------------------]    



        Repeat Riff 1

        Repeat Riff 2
Comments