Rotting Christ - Ten Miles High Chords & Tabs

 

Ten Miles High Chords & Tabs

Rotting Christ Chords & Tabs

Version: 1 Type: Tab 0 ratings
1 star 2 stars 3 stars 4 stars 5 stars
comments

Ten Miles High Tab

   
Band:  ROTTING CHRIST
Album: A DEAD POEM
Song:  TEN MILES HIGH

Copyright (c)
Version 1.0 - 03-27-2004

Transcribed By: FABIAN RODRIGUEZ
Email:          rotting_shaggyy@hotmail.com


.  - palm mute           /  - slide up to
\  - slide down to       ~  - vibrato
h  - hammer on           b  - Bend
p  - pull off            Suffixes for bend
t  - tap                 f  - full bend    h - half bend
ph - pinched harmonic    q  - quarter bend t - tap bend
*  - see comment         ^  - Hold bend    r release bend
x  - Stuccatto           ~  - vibrato bend
,  - slight palm mute    () - ghost note, sustained note
"  - tremolo picking        <> - Trill

Tunning E A D G B E
                                                                               >

INTRO
P.M.____________sligth P.M.______      2ND GUITAR W/ WAH WAH
|-----------------------------------------------------------------|
|-----------------------------------------------------------------|
|-----------------------------------------------------------------|
|-2-2-2-2-2-2-2-2-2-2-2-2-2-2-2-2---------------------------------|
|-0-0-0-0-0-0-0-0-0-0-0-0-0-0-0-0-3-3-3-3-3-3-3-3-3-3-3-3-3-3-3-3-|
|---------------------------------1-1-1-1-1-1-1-1-1-1-1-1-1-1-1-1-|



|---------------------------------------------------------------------|
|---------------------------------------------------------------------|
|---------------------------------------------------------------------|
|-5-5-5----5-5-5--7---------10-------5-5-5----5-5-5-----7---------10/-|
|-3-3-3----3-3-3--5---------8--------3-3-3----3-3-3-----5---------8-/-|
|---------------------------------------------------------------------|


 let ring (BASS FILL)
|------------------------|
|------------------------|
|-2----------------------|
|-2----------------------|
|-0----------------------|
|------------------------|


 KEYBOARD ARR. BY GUITAR                          (2 TIMES)
|---------------------------------------------------------|
|-5------5---5---5---5-6-5----------6--------------6------|
|------7---7---------------7-7---7-----7-------7-----7----|
|----------------------------8-----------7-5-----5-----7--|
|---------------------------------------------------------|
|---------------------------------------------------------|


 GUITAR 1           (4 TIMES)
|---------------------------|
|---------------------------|
|-2------------2------------|
|-2------------2----2-------|
|-0------------0----2-------|
|  -----------------0-------|
|
|
|GUITAR 2
|---------------------------|
|------------/10 ~ ---------|
|-2-- --------------9 ~ ----|
|-2-------------------------|
|-0-------------------------|
|---------------------------|



 let ring      (BASS FILL)
|------------------------|
|------------------------|
|-2----------------------|
|-2----------------------|
|-0----------------------|
|------------------------|



 KEYBOARD ARR. BY GUITAR                          (2 TIMES)
|---------------------------------------------------------|
|-5------5---5---5---5-6-5----------6--------------6------|
|------7---7---------------7-7---7-----7-------7-----7----|
|----------------------------8-----------7-5-----5-----7--|
|---------------------------------------------------------|
|---------------------------------------------------------|



 GUITAR 1           (4 TIMES)
|---------------------------|
|---------------------------|
|-2------------2------------|
|-2------------2----2-------|
|-0------------0----2-------|
|  -----------------0-------|
|
|
|GUITAR 2
|---------------------------|
|------------/10 ~ ---------|
|-2-- --------------9 ~ ----|
|-2-------------------------|
|-0-------------------------|
|---------------------------|


[ Tab from: http://www.guitartabs.cc/tabs/r/rotting_christ/ten_miles_high_tab.html ]
 SOLO
 GUITAR 1
|---------------------------------------------------------------------------|
|---------------------------------------------------------------------------|
|-2--------2-2-------2-------2-2------------------------------2-------2-2---|
|-2--------2-2-------2-------2-2------------5-------5-5-------2-------2-2---|
|-0------0-0-0-------0-----0-0-0------------5-------5-5-------0-----0-0-0---|
|---------------------------------5-7-8-7-5-3-----3-3-3-----3---------------|
|        .                 .      . . . . .       .         .       .
|
|GUITAR 2
|---------------------------------------------------------------------------|
|---------------------------------------------------------------------------|
|-2-------------------------------------------------------------------------|
|-2------------------7------------------------------------------------------|
|-0------0-5/7 ~ ----7-----0----------------7 ~ ~ ----------5/12 ~ ~ ~ -----|
|----------------------------5 ~ ---------0---------------------------------|
         .                 .              .

 GUITAR 1
|-----------------------------------------------|
|-----------------------------------------------|
|-2-----------------2--2---------2-------2-2----|
|-2-----------------2--2---------2-------2-2----|
|-0--------------0--0--0---------0-----0-0-0----|
|-----------------------------------------------|
|                .                     .
|
|GUITAR 2
|-----------------------------------------------|
|-----------------------------------------------|
|-14/16-16-16/17--------------------------------|
|-------------------------------14~ -14h15p14---|
|-12/14-14-14/15-15-15\14 ~ --------------------|
|-----------------------------------------------|


 GUITAR 1
|--------------------------------------------------------|
|--------------------------------------------------------|
|---------------------------------2----------------------|
|-5-----------5--5----------------2----------------------|
|-5-----------5--5----------------0------0-0-0-0-0-0-0-0-|
|-3--------3--3--3-------------3-------------------------|
|          .                   .         . . . . . . . .
|
|
|GUITAR 2
|-/12-13~ ----------12-13-15p13-12~ ~ -------------------|
|--------------------------------------------------------|
|--------------------------------------------------------|
|--------------------------------------------------------|
|--------------------------------------------------------|
|--------------------------------------------------------|


 MAINLY THE GUITAR 1 JUST PLAY A5 AND G5 ALONG THE SOLO
|----------------------------------------------------------------------|
|----------------------------------------------------------------------|
|----------------------------------------------------------------------|
|-10~ --9-9-10p9----------------/10-9----------------------------------|
|----------------10~ ~-----------------10~ ~ ~----7-8~ --10-8-10-7~ ~--|
|----------------------------------------------------------------------|


|---------------------------------------------------------------------|
|---------------------------------------------------------------------|
|-----9~ ~---9-9-10\9--9-9\7--7-7~ ~-7/9-99-9/10--10-9--7-------------|
|-/12------------------------------------------------------10-9-7-\5--|
|---------------------------------------------------------------------|
|---------------------------------------------------------------------|
                               PH



 let ring      (BASS FILL)
|------------------------|
|------------------------|
|-2----------------------|
|-2----------------------|
|-0----------------------|
|------------------------|



 KEYBOARD ARR. BY GUITAR                          (2 TIMES)
|---------------------------------------------------------|
|-5------5---5---5---5-6-5----------6--------------6------|
|------7---7---------------7-7---7-----7-------7-----7----|
|----------------------------8-----------7-5-----5-----7--|
|---------------------------------------------------------|
|---------------------------------------------------------|




 GUITAR 1           (4 TIMES)
|---------------------------|
|---------------------------|
|-2------------2------------|
|-2------------2----2-------|
|-0------------0----2-------|
|  -----------------0-------|
|
|
|GUITAR 2
|---------------------------|
|------------/10 ~ ---------|
|-2-- --------------9 ~ ----|
|-2-------------------------|
|-0-------------------------|
|---------------------------|
Comments