Rotting Christ - Sorrowful Farewell Chords & Tabs

 

Sorrowful Farewell Chords & Tabs

Rotting Christ Chords & Tabs

Version: 1 Type: Tab 0 ratings
1 star 2 stars 3 stars 4 stars 5 stars
comments

Sorrowful Farewell Tab

Official Rotting Christ Page : http://rchrist.conxion.gr/


Submited By George Tampakidis 


--------------|----------------|--------------|-----------5------|
--------------|----------------|--------------|---------5---5----|
--------------|----------------|--------------|-------6----------|
-2------3--2--|-2-------3--2---|-5------------|--3--7------------|
-2------3--2--|-2-------3--2---|-5--------5^b-|--3---------------|
-0--0-0-1--0--|-0---0-0-1--0---|-3--3-3-3-----|--5---------------|
 Intro x4                                           - - - - - p.m  
                       

--------------|----------------|----------------|------------|----------------
--------------|----------------|----------------|------------|----------------
-4--2---------|-4--2-----------|------4-----4---|-2--4--2-4-2|----------------
-------5-4-2--|-------5-4-2----|---5-----5-----5|------------|----------------
--------------|----------------|----------------|------------|----------------
--------------|----------------|----------------|------------|----------------
 melody part 1st guitar x6                            
                       

--------------|--------------------|-------|----------------------|-----------
--------------|--------------12/--2|-------|----------------------|-----------
--------------|--------------12/--2|-------|----------------------|-----------
--------------|---2----------12/--2|-------|----------------------|-----------
--------------|---2----------------|-------|----0x0x0x0x0x0x0x0x0x|-----------
--------------|---0----------------|-------|----------------------|-----------
 --pause------ the 2nd guitar play that               
                       

-|----------|--------------|-----------|-------------|------------------------
-|----------|--------------|-----------|-------------|------------------------
-|----------|--------------|-----------|-------------|------------------------
-|2---------|---2----------|-5---------|-3-----------|------------------------
-|2-----2-2-|---2------2-2-|-5------5-5|-3-------3-3-|------------------------
-|0---0-0-0-|---0----0-0-0-|-3---3--3-3|-5----5--5-5-|------------------------
 riff 1  x4.play the 2nd guitar the 1st play the
melody part.Words starts     

------------------------------------------|-----------------------------------
------------------------------------------|-----------------------------------
-----2----5-------------------------------|-----------------------------------
-----2----5----2--------------------------|-----------------------------------
-----0----3----2-----7---7---7---7---7-777|-----------------------------------
---------------0---000-000-000-000-000-000|-----------------------------------
  1st and 2nd guitar play the same                    
                       

------------------------------------------------------------|-----------------
--------1--------------5------------------------------------|-----------------
--2---2---2------5---5---5----------------------------------|-----------------
--2-2-------2----5-5-------5-----2--------------------------|-----------------
--0--------------3---------------2-----7---7---7---7---7-777|-----------------
---------------------------------0---000-000-000-000-000-000|-----------------
 riff 2 x3                                            
                       

-----------------------------------------------|------------------------------
-----------------------------------------------|------------------------------
--2---2----------------------------------------|------------------------------
--2-2--------------2---------------------------|------------------------------
--0----------------2---7---7---7---7-----------|------------------------------
-------------------0-000-000-000-000-032-032-00|------------------------------
                                                      
                       

--------------|------------|-----------|-------------|------------------------
--------------|------------|-----------|-------------|------------------------
---4--2-------|--4--2------|----4---4--|---2--4-2-4-2|------------------------
---------5-4-2|-------5-4-2|--5---5---5|-------------|------------------------
--------------|------------|-----------|-------------|------------------------
--------------|------------|-----------|-------------|------------------------
  1st guitar play only the melody part again    x4    
                       

----------|----------|----------|----------|----------------------------------
----------|----------|----------|----------|----------------------------------
----------|----------|----------|----------|----------------------------------
-2--------|-2--------|-5--------|-7--------|----------------------------------
-2-----2-2|-2-----2-2|-5-----5-5|-7-----7-7|----------------------------------
-0---0-0-0|-0---0-0-0|-3---3-3-3|-5---5-5-5|----------------------------------
 2nd guitar play riff 1 x4                            
                       
[ Tab from: http://www.guitartabs.cc/tabs/r/rotting_christ/sorrowful_farewell_tab.html ]
--------------------------------------|---------------------------------------
--------------------------------------|---------------------------------------
---2---5------------------------------|---------------------------------------
---2---5---2--------------------------|---------------------------------------
---0---3---2-----7---7---7---7---7-777|---------------------------------------
-----------0---000-000-000-000-000-000|---------------------------------------
  1st and 2nd guitar play the same                    
                       

------------------------------------------------------------|-----------------
--------1---------------5-----------------------------------|-----------------
--2---2---2-------5---5---5---------------------------------|-----------------
--2-2-------2-----5-5-------5----2--------------------------|-----------------
--0---------------3--------------2-----7---7---7---7---7-777|-----------------
---------------------------------0---000-000-000-000-000-000|-----------------
 riff 2 x3                                            
                       

---------------------------------------------|--------------------------------
---------------------------------------------|--------------------------------
-2----2--------------------------------------|--------------------------------
-2--2---------2------------------------------|--------------------------------
-0------------2----7---7---7---7-------------|--------------------------------
--------------0--000-000-000-000-032-032-00--|--------------------------------
                                                      
                       

------------------------------------------------------------------------------
------------------------------------------------------------------------------
------------------------------------------------------------------------------
------------------------------------------------------------------------------
-----------------3----------------3----------------3--------------------------
-000000000000000010000000000000000100000000000000001000000///////-------------
 follow the drums rythm                               
                       

------------------------------------|-----------------------------------------
------------------------------------|-----------------------------------------
--------------------------2---------|-----------------------------------------
-2--2---5--3--5-----5--3--2--0--2--2|-----------------------------------------
-2--2---5--3--5-----5--3-----0--2--2|-----------------------------------------
-0---------------------------------0|-----------------------------------------
 riff 3 x6                                            
                       

---------------|--------------|----------|-----------|------------------------
---------------|--------------|----------|-----------|------------------------
--4--2---------|--4--2--------|---4---4--|--2-4-2-4-2|------------------------
----------5-4-2|---------5-4-2|-5---5---5|-----------|------------------------
---------------|--------------|----------|-----------|------------------------
---------------|--------------|----------|-----------|------------------------
 1st guitar play melody part x4                       
                       

---------|----------|----------|----------|-----------------------------------
---------|----------|----------|----------|-----------------------------------
---------|----------|----------|----------|-----------------------------------
-2-------|-2--------|-5--------|-7--------|-----------------------------------
-2----2-2|-2-----2-2|-5-----5-5|-7-----7-7|-----------------------------------
-0--0-0-0|-0---0-0-0|-3---3-3-3|-5---5-5-5|-----------------------------------
 2nd guitar play riff 1 x4                            
                       

-----------------------------------|------------------------------------------
-----------------------------------|------------------------------------------
--2--5-----------------------------|------------------------------------------
--2--5---2-------------------------|------------------------------------------
--0--3---2----7---7---7---7---7-777|------------------------------------------
---------0--000-000-000-000-000-000|------------------------------------------
 1st and 2nd guitar play                              
                       

------------------------------------------------------------|-----------------
---------1---------------5----------------------------------|-----------------
--2----2---2-----5----5----5--------------------------------|-----------------
--2--2-------2---5--5--------5---2--------------------------|-----------------
--0--------------3---------------2-----7---7---7---7---7-777|-----------------
---------------------------------0---000-000-000-000-000-000|-----------------
 riff 2 x3                                            
                       

-------------------------------------------|----------------------------------
-------------------------------------------|----------------------------------
--2---2------------------------------------|----------------------------------
--2-2------2-------------------------------|----------------------------------
--0--------2------7---7---7---7------------|----------------------------------
-----------0----000-000-000-000-032-032-00-|----------------------------------



Just A Perfect Song. You Have To Listen To It To Believe.
I hope There Will Be More Rotting Christ Tabs In The Future :)
Comments