Rotten Apples - Love Career Chords & Tabs

 

Love Career Chords & Tabs

Rotten Apples Chords & Tabs

Version: 1 Type: Tab 0 ratings
1 star 2 stars 3 stars 4 stars 5 stars
comments

Love Career Tab

OK, I lied, this is more than just the intro. I accidentaly said that
I was doing the intro. This is the intro and chorus. Both the lead
and the rythm play this part. Please rate my tab (At upper right
corner)
Have Fun!
[ Tab from: http://www.guitartabs.cc/tabs/r/rotten_apples/love_career_tab.html ]
Intro
e/----------|r
b/----------|e
g/----------|p
d/-9--5--7--|e
a/-9--5--7--|a
e/-7--3--5--|t

chorus

e/-------------------------------------------|r
b/-------------------------------------------|e
g/-------------------------------------------|p
d/-9-9-9-9-10-10-10-10--7-7-7-7-8-8-8-8------|e
a/-9-9-9-9-10-10-10-10--7-7-7-7-8-8-8-8------|a
e/-7-7-7-7-8--8--8--8---5-5-5-5-6-6-6-6------|t
Comments