Rossini Gioacchino - Figaro Chords & Tabs

 

Figaro Chords & Tabs

Rossini Gioacchino Chords & Tabs

Version: 1 Type: Tab 0 ratings
1 star 2 stars 3 stars 4 stars 5 stars
comments

Figaro Tab

   
(Figaro) Largo al factotum - Gioacchino Rossini
Tabbed by springwaffle

This is the end of the Figaro song you hear quite often in cartoons.

e-------------------------------------------------------
b-1---------3---3---------1---------1--------1--------1-
g---0-0---0-------0-0---0-----0-0-0----0-0-0----0-0-0---
d-------------------------------------------------------
a-------------------------------------------------------
e-------------------------------------------------------

e----------------------------------------------------------------------
b-------3--------3--------3--------3--------1--------3-3-3-------1-1-1-
g-0-0-0----0-0-0----0-0-0----0-0-0----0-0-0----0-0-0-------0-0-0-------
d----------------------------------------------------------------------
a----------------------------------------------------------------------
e----------------------------------------------------------------------

e-----------------------0--------0--------0--------0-----
b-------3--3-------1--3---3-1--3---3-1--3---3-1--3---3-1-
g-0-0-0------0-0-0---------------------------------------
d--------------------------------------------------------
a--------------------------------------------------------
e--------------------------------------------------------

e---------------
b-1-1-1-1-1-1-1-
g-0-0-0-0-0-0-0-
d-2-2-2-2-------
a-3-3-3-3-------
e---------------
[ Tab from: http://www.guitartabs.cc/tabs/r/rossini_gioacchino/figaro_tab.html ]
e|--------------------------------------------------------1-0-------
b|*-------------------------------------------------1-0-1-----3-1-0-
g|--5-4-5-0---0-5-4-5-0---0-5-4-5-0---0-5-4-5-2-1-2-----------------
d|----------4-----------4-----------4-------------------------------
a|*-----------------------------------------------------------------
e|------------------------------------------------------------------

e------------------------------|
b-----0-----0-----0-------0-1-*|
g-2-0---2-0---2-0---2-0-2------|
d------------------------------|
a-----------------------------*|
e------------------------------|

e---------------1---------------0------0-----------1---------------
b-1--3p1p0-1-3------0-3-1-0-1-3---1--1---3-1-0-1-3-----0-3-1-0-1-3-
g------------------------------------------------------------------
d------------------------------------------------------------------
a------------------------------------------------------------------
e------------------------------------------------------------------

e-0-1-0---0---------------0-1-0---0------------------1--3----
b-------3---3-1-3-1-0-1-0-------3---3-1-3-1-0-1-0-1----------
g----------------------------------------------------------0-
d------------------------------------------------------------
a------------------------------------------------------------
e------------------------------------------------------------

e---------0-----------0-----------0-----------0------8-8-----
b-1-0-1-3---3-1-0-1-3---3-1-0-1-3---3-1-0-1-3---3-1----------
g------------------------------------------------------------
d------------------------------------------------------------
a--------------------------------------------------------3-3-
e------------------------------------------------------------

Corrections/comments/etc. can be sent to: springwaffle@comcast.net
Comments