Rosie Thomas - Let It Be Me Chords & Tabs

 

Let It Be Me Chords & Tabs

Rosie Thomas Chords & Tabs

Version: 1 Type: Chords

Let It Be Me Chords

   
-------------------------------------------------------------------------------
                        LET IT BE ME - Rosie Thomas 
		from the album "If Songs Could Be Held"
                    (featuring the fantastic Ed Harcourt)
                        http://www.rosiethomas.com
-------------------------------------------------------------------------------
Tabbed by: Terri
Email: prettydress@gmail.com

Tuning: STANDARD
[ Tab from: http://www.guitartabs.cc/tabs/r/rosie_thomas/let_it_be_me_crd.html ]
INTRO:
	A		                   Bm		 A*	            x2	
e|---------------------------------------------------------------------------|
B|----------2--------------2---------------3--------------3------------------|
G|--------------2-------------2---------------2---------------2--------------|
D|-------2-------------2----------------4--------------3---------------------|
A|---0-------------0---------------0---------------0-------------------------|
E|---------------------------------------------------------------------------|

VERSE (Either use the same picking pattern, or strum):

A	    E	
I bless the day I found you
D           A
I want to stay around you
D        A
And so I beg you
D    E    ( A   Bm  A* (intro riff))
Let it be me.


Don't take this heaven from one
If you must cling to someone
Now and forever
Let it be me


Chorus
D	          A
'Cause each time we meet love
D   E   A
I find complete love
D         A
Without your sweet love
E
What would life be?