Rose Royce - Car Wash Chords & Tabs

 

Car Wash Chords & Tabs

Rose Royce Chords & Tabs

Version: 1 Type: Bass Tab 0 ratings
1 star 2 stars 3 stars 4 stars 5 stars
comments

Car Wash Bass Tab

Car Wash
Rose Royce (http://en.wikipedia.org/wiki/Rose_Royce)

4/4 time, standard tuning.

Intro
||-------------|---------------|-------------|---------------|
||-------------|-------1-0-----|-------------|---------------|
||-3--3--3--3--|-3--3-3----3-0-|-3--3--3--3--|-3--3-13-2---0-|
||------3-----3|---------------|------3-----3|-----------3---|

|-------------|---------------|-------------|-----553-00------|
|-------------|-------1-0-----|-------------|-----------3-120-|
|-3--3--3--3--|-3--3-3----3-0-|-3--3--3--3--|-3-R-------------|
|------3-----3|---------------|------3-----3|-----------------|

Verse
|-------------|---------------|-------------|---------------|
|-------------|-------120-----|-------------|-------120-----|
|-3--3--3--3--|-3--3-3----330-|-3--3--3--3--|-3--3-3----330-|
|------3-----3|---------------|------3-----3|---------------|

|-------------|---------------|-------------|---------------|
|-------------|-------120-----|-------------|---------------|
|-3--3-33--3--|-3--3-3----330-|-3--3--3--3--|-3--3-33-1-----|
|------------3|---------------|------3-----3|-----------3-0-|

Chorus
|-------------|-----------------|-------------|-----------------|
|-------------|-----------------|-------------|-----------------|
|----3--3--3--|-333---0-3-1-----|----3--3--3--|-3-3-----3-1---0-|
|-0----3-----3|-----3-------3-0-|-0----3-----3|-----3-3-----3---|

|-------------|---------------|--------------|-00553-00------|
|-------------|-------120---0-|--------------|---------3-1-2-|
|----3--3--3--|-3--3-3----3---|-3--3--3--3-3-|------------3--|
|-0----3-----3|---------------|------3-------|---------------|

|-------------|---------------|-------------|---------------|
|-------------|-------120-----|-------------|---------------|
|-3--3--3--3--|-3--3-3----330-|-3--3--3--3--|-3--3--331-----|
|------3-----3|---------------|------3-----3|------3----310-|

|-------------|---------------|-------------|----------------|
|-------------|-------120-----|-------------|----------------|
|----3--3--3--|-3--3-3----330-|-3--3-33--3--|-3-1------------|
|-0----3-----3|---------------|------------3|-----3-1-0--3-3-|

|-------------|-----------------|-------------|-----------------|
|-------------|-----------------|-------------|-----------------|
|----3--3--3--|-333---0-3-1-----|----3--3--3--|-3-3-----3-1---0-|
|-0----3-----3|-----3-------3-0-|-0----3-----3|-----3-3-----3---|
[ Tab from: http://www.guitartabs.cc/tabs/r/rose_royce/car_wash_btab.html ]
|-------------|---------------|-00553-00------|-------------|
|-------------|-------120---0-|---------3-1-2-|-------------|
|----3--3--3--|-3--3-3----3---|------------3--|-3--3--3--3--|
|-0----3-----3|---------------|---------------|------3-----3|

|---------------|-------------|---------------|-------------|
|-------120-----|-------------|---------------|-------------|
|-3--3-3----330-|-3--3--3--3--|-3--3-33-1-----|----3--3--3--|
|---------------|------3-----3|-----------3-0-|-0----3-----3|

|---------------|-------------|---------------|------------|----------|
|---------------|-------------|---------------|------------|----------|
|-3--3-3331-----|----3--3--3--|-3--3--331-0---|-3-2--0-----|-0--------|
|-----------3-0-|-0----3-----3|------3------3-|------------|----------|

|------------|----------|------------|----------|----------------|
|------------|----------|------------|----------|----------------|
|-3-2--0-----|-0--------|-3-2--0-----|-0--------|----------------|
|------------|----------|------------|----------|-111-R--333-3-3-|

|-------------|----------------|-------------|-----------------|
|-------------|----------------|-------------|-----------------|
|----3--3--3--|-333--0-3-1-----|----3--3--3--|-3-3-----3-1---0-|
|-0----3-----3|-----3------3-0-|-0----3-----3|-----3-3-----3---|

|-------------|---------------|--------------|-----------------|
|-------------|-------120---0-|--------------|-----------------|
|----3--3--3--|-3--3-3----3---|-3--3--3--3-3-|-3---0-1-3-2-----|
|-0----3-----3|---------------|------3-------|---3---------3-0-|

|-------------|---------------|-------------|----------------|
|-------------|-------120-----|-------------|----------------|
|----3--3--3--|-3--3-3----330-|-3--3--3--3-0|-3-1----------0-|
|-0----3-----3|---------------|------3------|-----3-0-0--3---|

|-------------|---------------|-------------|----------------|
|-------------|-------120-----|-------------|----------------|
|-3--3--3--3--|-3--3-3----330-|-3--3--3--3--|-3-1------------|
|------3-----3|---------------|------3-----3|-----3-0-0--333-|

|------------------|-----------0-----|-----------------|------------------||
|*-----------------|-------------2-0-|-----------------|-----------------*||
|*-3-3-------------|---3-----3-------|-3-3-------------|---3-------------*||
|------3-3-1-2-2-2-|-3---3-3---------|-----3-3-1-2-2-2-|-3---3-3-1-2-2-2--||



Whole note:  |-1--------|
Dotted half: |-1------|
Half note:   |-1----|
Quarter note:|-1--|
Eighth note: |-1-|
Sixteenth:   |-1|
R=rest (rests work the same way)
New measure: |-
             |-
             |-
             |-

Questions, comments: sk8now22@sbcglobal.net
Comments