Rose Renegade - Sticky Situation Chords & Tabs

 

Sticky Situation Chords & Tabs

Rose Renegade Chords & Tabs

Version: 1 Type: Bass Tab 0 ratings
1 star 2 stars 3 stars 4 stars 5 stars
comments

Sticky Situation Bass Tab

Intro
standard tuning


--------------------------------------------------------------------------------------------------------------
-------------------------------------------------------------------------------------------------------------
-----0----------3--------5--------------3------0--------3-------------------------------------------------
--------------------------------------------------------------------------------------------------------------

verse-repeat
---------------------------------------------------------------------------------------------------------------
---------------------------------------------------------------------------------------------------------------
---0-0-0-0-0-0-0-0-------0---0----3---0-----3-----5-----------------------------------------------------
----------------------------------------------------------------------------------------------------------------
[ Tab from: http://www.guitartabs.cc/tabs/r/rose_renegade/sticky_situation_btab.html ]
chorus-repeat
------------------------------------------------------------------------------------------------------------------
------------------------------------------------------------------------------------------------------------------
-0----0------0--3-------3-0-3-0----5-------------------------------------------------------------------------
------------------------------------------------------------------------------------------------------------------

bridge

------------------------------------------------------------------------------------------------------------------
------------------------------------------------------------------------------------------------------------------
--0-----5-----0-----5-----0----5-----0--7-7-7---------------------------------------------------------------
-----------------------------------------------------------------------------------------------------------------


solo-

just verse then chorus


Rose Renegade is the ultimate 80s band
Comments