Roper - Youre Still The One Chords & Tabs

 

Youre Still The One Chords & Tabs

Roper Chords & Tabs

Version: 1 Type: Bass Tab

Youre Still The One Bass Tab

   
Song - You're Still The One
Artist - Roper
Album - Brace Yourself For The Mediocre
Tuning: E-A-D-G
E-mail: SirPlorkenblog@gmail.com

http://www.roperisdumb.com/ - Roper Homepage


My 2nd tab. E-mail me with any problems you find in it. I'm sure it's not perfect.

Intro

G----------------------------------------------------------------------------|
D----------------------------------------------------------------------------|
A----------------------------------------------------------------------------|
E---0-0-0-0-0-0-0-0---4-4-4-4-4-4-4-4---5-5-5-5-5-5-5-5-5---7-7-7-7-7-7-7-7--|

Verse

G----------------------------------------------------------------------------|
D----------------------------------------------------------------------------|
A----------------------------------------------------------------------------|
E---0-0-0-0-0-0-0-0---4-4-4-4-4-4-4-4---5-5-5-5-5-5-5-5-5---7-7-7-7-7-7-7-7--|

Pre - Chorus
[ Tab from: http://www.guitartabs.cc/tabs/r/roper/youre_still_the_one_btab.html ]
G--------------------------------------------------------------------------------|
D--------------------------------------------------------------------------------|
A--------------------------------------------------------------------------------|
E---0-0-0-0-0-0-0-0---5-5-5-5-5-5-5-5-5---2-2-2-2-2-2-2-2-2---7-7-7-7-7-7-7-7-7--|

Chorus

G------------------------------------------------------------------------------------------------------------------------------------------|
D------------------------------------------------------------------------------------------------------------------------------------------|
A------------------------------------------------------------------------------------------------------------------------------------------|
E---0-0-0-0-0-0-0-0---5-5-5-5-5-5-5-5-5---2-2-2-2-2-2-2-2-2---7-7-7-7-7-7-7-7-7-------0-0-0-0-0-0-0-0---5-5-5-5-5-5-5-5---7-7-7-7-7-7-7-7--|

Solo

G----------------------------------------------------------|
D----------------------------------------------------------|
A----------------------------------------------------------|
E---0-0-0-0-0-0-0-0---5-5-5-5-5-5-5-5-5---7-7-7-7-7-7-7-7--|

Outro

G------|
D------|
A------|
E---0--|


Intro
Verse
Pre-Chorus
Chorus
Verse
Pre-Chorus
Chorus
Solo
Chorus
Outro