Rootlifter - The Canticle Of Venus Chords & Tabs

 

The Canticle Of Venus Chords & Tabs

Rootlifter Chords & Tabs

Version: 1 Type: Tab 0 ratings
1 star 2 stars 3 stars 4 stars 5 stars
comments

The Canticle Of Venus Tab

   
artist: rootlifter
title: The Canticle of Venus
album: not yet established
music and lyrics by: sean carver

VERSES:
E:----0---------0---------0--------0-0-0
B:---3--3------3--3------3--3------3-3-3
D:--0----0----0----0----0----0-----0-0-0   repeat
G:---------------------------------0-0-0
A:3---------2---------0------------0-0-0
E:------------------------------3--3-3-3

CHORUS:
E:1-1-1-0h1-0--0-0-0------0-0-0-----3-3-3-
B:3-3-3------0-1-1-1------3-3-3-----3-3-3-
D:2-2-2--------2-2-2----0-0-0-0-----0-0-0-
G:0-0-0--------2-2-2-0-2--2-2-2-----0-0-0-
A:0-0-0--------0-0-0------2-2-2-----2-2-2-
E:------------------------0-0-0-2-3-3-3-3-
[ Tab from: http://www.guitartabs.cc/tabs/r/rootlifter/the_canticle_of_venus_tab.html ]
INTERLUDE PT #1:
E:------------------------------------0-0-0-0-0-0-
B:------------------------------------0-0-0-0-0-0-
D:6-6-6-7-7-6-4-4-4-4-4-4-6-6-6-7-7-6-1-1-1-1-1-1-
G:6-6-6-7-7-6-4-4-4-4-4-4-6-6-6-7-7-6-2-2-2-2-2-2-
A:4-4-4-4-4-4-2-2-2-2-2-2-4-4-4-4-4-4-2-2-2-2-2-2-
E:4-4-4-4-4-4-2-2-2-2-2-2-4-4-4-4-4-4-0-0-0-0-0-0-

INTRO/INTERLUDE PT #2:
E:---------------------------------0-
B:---------------------------------0-
D:11-9-8---11-13-9---11-9-8---6/7--1-
G:X--X-X---X--X--X---X--X-X---X/X--2-
A:9--7-6---9--11-7---9--7-6---4/5--2-
E:---------------------------------0-


LYRICS:

i stand out in the rain,
im immersed in all my vain,
the thunder's the only sound,
not a single shadow all around,
but i see her standing there,
hovering in the air,
and she...

she just holds me,
im so lonely,
she wrappes her arms around me tight,
i keep her grip with all my might,
my face pressed against her neck,
she must be here to protect,
and she just holds me...

she's dressed like a star,
her whispers heard from afar,
she is a human Goddess under the moonlight,
she surpresses every satellite,
God i hope she is a sign,
that will wake me from sleeping on this landmine,
and she...

she inhabitates me...


by sean carver
Comments