Rootlifter - Strayed Machines Chords & Tabs

 

Strayed Machines Chords & Tabs

Rootlifter Chords & Tabs

Version: 1 Type: Tab 0 ratings
1 star 2 stars 3 stars 4 stars 5 stars
comments

Strayed Machines Tab

   
artist: rootlifter
title: strayed machines
album: not yet established
music and lyrics by: sean carver
tuning: drop D

VERSE:

E:----------------------
B:-8-----12-----5-----9-
D:-8-----12-----5-----9-
G:-8-----12-----5-----9-
A:-6-----10-----3-----7-
D:----------------------

BRIDGE:

E:---------------------------------------------
B:--------------------------------12*-12*-b14*-
D:6/7--9-9-9-9-10/11--13-13-13-13--------------
G:X/X--X-X-X-X-X-/X---X--X--X--X---------------
A:4/5--7-7-7-7-8-/9---11-11-11-11--------------
D:---------------------------------------------

CHORUS:

E:------0-0-0-------0-0-0-------------
B:------3-3-3-------5-5-5-------------
D:2-2-2-2-2-2-3-3-3-4-4-4-8-8-8-8-8-8-
G:2-2-2-0-0-0-3-3-3-0-0-0-8-8-8-8-8-8-
A:2-2-2-------3-3-3-------8-8-8-8-8-8-
E:2-2-2-------3-3-3-------8-8-8-8-8-8-

INTERLUDE:
[ Tab from: http://www.guitartabs.cc/tabs/r/rootlifter/strayed_machines_tab.html ]
E:------------------------        ------------
B:------------------------        ------------
D:2h3h2-x-x-x2h3h2-7-6-10-        -10-7-6-4/5-
G:2h3h2-x-x-x2h3h2-x-x-x--4X THEN -x--x-x-x/x-
A:2h3h2-x-x-x2h3h2-5-4-8--        -8--5-4-2/3-
E:2h3h2-x-x-x2h3h2--------        ------------


LYRICS:

liquids and crumbling solids,
we're just chemicals,
breaching inner discourse,
the handicap clouds,
pour wealth, you slave,
dance bitch, you're gonna dance,
and i am the vapour,
i am the vapour...

i knew it would come to this,
you're just comfort, not support,
and i'm tasting your success,
you've fucked up, going nowhere,
and it's over...

long time walking,
practising to speak,
calling it off,
we'll never hear the same song,
being held,
and wanting down,
you couldn't hold up right,
and i'll be damned if i teach you,
you will never know...

i never knew you,
i never knew you,
colliding in the crowds,
i don't want to know...


by sean carver
Comments